  0
SECTION
  2
HEADER
  9
$ACADVER
  1
AC1009
  9
$INSBASE
 10
0.0
 20
0.0
 30
0.0
  9
$EXTMIN
 10
-50.0
 20
-50.0
 30
-2.184611
  9
$EXTMAX
 10
50.0
 20
50.0
 30
10.654816
  9
$LIMMIN
 10
0.0
 20
0.0
  9
$LIMMAX
 10
12.0
 20
9.0
  9
$ORTHOMODE
 70
     1
  9
$REGENMODE
 70
     1
  9
$FILLMODE
 70
     1
  9
$QTEXTMODE
 70
     0
  9
$MIRRTEXT
 70
     1
  9
$DRAGMODE
 70
     2
  9
$LTSCALE
 40
1.0
  9
$OSMODE
 70
     0
  9
$ATTMODE
 70
     1
  9
$TEXTSIZE
 40
0.2
  9
$TRACEWID
 40
0.05
  9
$TEXTSTYLE
  7
STANDARD
  9
$CLAYER
  8
RAFTY
  9
$CELTYPE
  6
BYLAYER
  9
$CECOLOR
 62
   256
  9
$DIMSCALE
 40
1.0
  9
$DIMASZ
 40
0.18
  9
$DIMEXO
 40
0.0625
  9
$DIMDLI
 40
0.38
  9
$DIMRND
 40
0.0
  9
$DIMDLE
 40
0.0
  9
$DIMEXE
 40
0.18
  9
$DIMTP
 40
0.0
  9
$DIMTM
 40
0.0
  9
$DIMTXT
 40
0.18
  9
$DIMCEN
 40
0.09
  9
$DIMTSZ
 40
0.0
  9
$DIMTOL
 70
     0
  9
$DIMLIM
 70
     0
  9
$DIMTIH
 70
     1
  9
$DIMTOH
 70
     1
  9
$DIMSE1
 70
     0
  9
$DIMSE2
 70
     0
  9
$DIMTAD
 70
     0
  9
$DIMZIN
 70
     0
  9
$DIMBLK
  1

  9
$DIMASO
 70
     1
  9
$DIMSHO
 70
     1
  9
$DIMPOST
  1

  9
$DIMAPOST
  1

  9
$DIMALT
 70
     0
  9
$DIMALTD
 70
     2
  9
$DIMALTF
 40
25.4
  9
$DIMLFAC
 40
1.0
  9
$DIMTOFL
 70
     0
  9
$DIMTVP
 40
0.0
  9
$DIMTIX
 70
     0
  9
$DIMSOXD
 70
     0
  9
$DIMSAH
 70
     0
  9
$DIMBLK1
  1

  9
$DIMBLK2
  1

  9
$DIMSTYLE
  2
*UNNAMED
  9
$DIMCLRD
 70
     0
  9
$DIMCLRE
 70
     0
  9
$DIMCLRT
 70
     0
  9
$DIMTFAC
 40
1.0
  9
$DIMGAP
 40
0.09
  9
$LUNITS
 70
     2
  9
$LUPREC
 70
     4
  9
$SKETCHINC
 40
0.1
  9
$FILLETRAD
 40
0.0
  9
$AUNITS
 70
     0
  9
$AUPREC
 70
     0
  9
$MENU
  1
acad
  9
$ELEVATION
 40
0.0
  9
$PELEVATION
 40
0.0
  9
$THICKNESS
 40
0.0
  9
$LIMCHECK
 70
     0
  9
$BLIPMODE
 70
     1
  9
$CHAMFERA
 40
0.0
  9
$CHAMFERB
 40
0.0
  9
$SKPOLY
 70
     0
  9
$TDCREATE
 40
2449220.528988426
  9
$TDUPDATE
 40
2449456.942947337
  9
$TDINDWG
 40
0.0772567130
  9
$TDUSRTIMER
 40
0.0772567130
  9
$USRTIMER
 70
     1
  9
$ANGBASE
 50
0.0
  9
$ANGDIR
 70
     0
  9
$PDMODE
 70
     0
  9
$PDSIZE
 40
0.0
  9
$PLINEWID
 40
0.0
  9
$COORDS
 70
     1
  9
$SPLFRAME
 70
     0
  9
$SPLINETYPE
 70
     6
  9
$SPLINESEGS
 70
     8
  9
$ATTDIA
 70
     0
  9
$ATTREQ
 70
     1
  9
$HANDLING
 70
     0
  9
$HANDSEED
  5
0
  9
$SURFTAB1
 70
    15
  9
$SURFTAB2
 70
    10
  9
$SURFTYPE
 70
     6
  9
$SURFU
 70
     6
  9
$SURFV
 70
     6
  9
$UCSNAME
  2

  9
$UCSORG
 10
0.0
 20
0.0
 30
0.0
  9
$UCSXDIR
 10
1.0
 20
0.0
 30
0.0
  9
$UCSYDIR
 10
0.0
 20
1.0
 30
0.0
  9
$PUCSNAME
  2

  9
$PUCSORG
 10
0.0
 20
0.0
 30
0.0
  9
$PUCSXDIR
 10
1.0
 20
0.0
 30
0.0
  9
$PUCSYDIR
 10
0.0
 20
1.0
 30
0.0
  9
$USERI1
 70
     0
  9
$USERI2
 70
     0
  9
$USERI3
 70
     0
  9
$USERI4
 70
     0
  9
$USERI5
 70
     0
  9
$USERR1
 40
0.0
  9
$USERR2
 40
0.0
  9
$USERR3
 40
0.0
  9
$USERR4
 40
0.0
  9
$USERR5
 40
0.0
  9
$WORLDVIEW
 70
     1
  9
$SHADEDGE
 70
     3
  9
$SHADEDIF
 70
    70
  9
$TILEMODE
 70
     1
  9
$MAXACTVP
 70
    16
  9
$PINSBASE
 10
0.0
 20
0.0
 30
0.0
  9
$PLIMCHECK
 70
     0
  9
$PEXTMIN
 10
1.000000E+20
 20
1.000000E+20
 30
1.000000E+20
  9
$PEXTMAX
 10
-1.000000E+20
 20
-1.000000E+20
 30
-1.000000E+20
  9
$PLIMMIN
 10
0.0
 20
0.0
  9
$PLIMMAX
 10
12.0
 20
9.0
  9
$UNITMODE
 70
     0
  9
$VISRETAIN
 70
     0
  9
$PLINEGEN
 70
     0
  9
$PSLTSCALE
 70
     1
  9
$TREEDEPTH
 70
  3020
  9
$DWGCODEPAGE
  3
ascii
  0
ENDSEC
  0
SECTION
  2
TABLES
  0
TABLE
  2
VPORT
 70
     2
  0
VPORT
  2
*ACTIVE
 70
     0
 10
0.0
 20
0.0
 11
1.0
 21
1.0
 12
0.0
 22
0.0
 13
0.0
 23
0.0
 14
1.0
 24
1.0
 15
0.0
 25
0.0
 16
-26.419806
 26
-10.340513
 36
-20.533861
 17
4.763957
 27
1.731302
 37
4.166704
 40
21.552456
 41
1.345749
 42
50.0
 43
0.0
 44
0.0
 50
0.0
 51
0.0
 71
     1
 72
   100
 73
     1
 74
     1
 75
     0
 76
     0
 77
     0
 78
     0
  0
ENDTAB
  0
TABLE
  2
LTYPE
 70
     1
  0
LTYPE
  2
CONTINUOUS
 70
    64
  3
Solid line
 72
    65
 73
     0
 40
0.0
  0
ENDTAB
  0
TABLE
  2
LAYER
 70
     7
  0
LAYER
  2
0
 70
    64
 62
     7
  6
CONTINUOUS
  0
LAYER
  2
CHAN
 70
    64
 62
     7
  6
CONTINUOUS
  0
LAYER
  2
ARML
 70
    64
 62
     7
  6
CONTINUOUS
  0
LAYER
  2
ARMS
 70
     0
 62
     7
  6
CONTINUOUS
  0
LAYER
  2
CEIL
 70
    64
 62
     7
  6
CONTINUOUS
  0
LAYER
  2
RAFTX
 70
    64
 62
     7
  6
CONTINUOUS
  0
LAYER
  2
RAFTY
 70
    64
 62
     7
  6
CONTINUOUS
  0
ENDTAB
  0
TABLE
  2
STYLE
 70
     1
  0
STYLE
  2
STANDARD
 70
    64
 40
0.0
 41
1.0
 50
0.0
 71
     0
 42
0.2
  3
txt
  4

  0
ENDTAB
  0
TABLE
  2
VIEW
 70
     1
  0
VIEW
  2
V1
 70
     0
 40
21.552456
 10
0.0
 20
0.0
 41
29.004191
 11
-26.419806
 21
-10.340513
 31
-20.533861
 12
4.763957
 22
1.731302
 32
4.166704
 42
50.0
 43
0.0
 44
0.0
 50
0.0
 71
     1
  0
ENDTAB
  0
TABLE
  2
UCS
 70
     1
  0
UCS
  2
XZ
 70
     0
 10
0.0
 20
0.0
 30
0.0
 11
1.0
 21
0.0
 31
0.0
 12
0.0
 22
0.0
 32
1.0
  0
ENDTAB
  0
TABLE
  2
APPID
 70
     1
  0
APPID
  2
ACAD
 70
    64
  0
ENDTAB
  0
TABLE
  2
DIMSTYLE
 70
     0
  0
ENDTAB
  0
ENDSEC
  0
SECTION
  2
BLOCKS
  0
BLOCK
  8
0
  2
ELLIPS_1
 70
    64
 10
0.0
 20
0.0
 30
0.0
  3
ELLIPS_1
  0
POLYLINE
  8
0
 62
     0
 66
     1
 10
0.0
 20
0.0
 30
0.0
 70
    17
 71
     8
 72
     5
  0
VERTEX
  8
0
 62
     0
 10
0.0
 20
0.0
 30
1.0
 70
    64
  0
VERTEX
  8
0
 62
     0
 10
-0.382683
 20
0.0
 30
0.92388
 70
    64
  0
VERTEX
  8
0
 62
     0
 10
-0.707107
 20
0.0
 30
0.707107
 70
    64
  0
VERTEX
  8
0
 62
     0
 10
-0.92388
 20
0.0
 30
0.382683
 70
    64
  0
VERTEX
  8
0
 62
     0
 10
-1.0
 20
0.0
 30
0.0
 70
    64
  0
VERTEX
  8
0
 62
     0
 10
0.0
 20
0.0
 30
1.0
 70
    64
  0
VERTEX
  8
0
 62
     0
 10
-0.270598
 20
-0.270598
 30
0.92388
 70
    64
  0
VERTEX
  8
0
 62
     0
 10
-0.5
 20
-0.5
 30
0.707107
 70
    64
  0
VERTEX
  8
0
 62
     0
 10
-0.653281
 20
-0.653281
 30
0.382683
 70
    64
  0
VERTEX
  8
0
 62
     0
 10
-0.707107
 20
-0.707107
 30
0.0
 70
    64
  0
VERTEX
  8
0
 62
     0
 10
0.0
 20
0.0
 30
1.0
 70
    64
  0
VERTEX
  8
0
 62
     0
 10
0.0
 20
-0.382683
 30
0.92388
 70
    64
  0
VERTEX
  8
0
 62
     0
 10
0.0
 20
-0.707107
 30
0.707107
 70
    64
  0
VERTEX
  8
0
 62
     0
 10
0.0
 20
-0.92388
 30
0.382683
 70
    64
  0
VERTEX
  8
0
 62
     0
 10
0.0
 20
-1.0
 30
0.0
 70
    64
  0
VERTEX
  8
0
 62
     0
 10
0.0
 20
0.0
 30
1.0
 70
    64
  0
VERTEX
  8
0
 62
     0
 10
0.270598
 20
-0.270598
 30
0.92388
 70
    64
  0
VERTEX
  8
0
 62
     0
 10
0.5
 20
-0.5
 30
0.707107
 70
    64
  0
VERTEX
  8
0
 62
     0
 10
0.653281
 20
-0.653281
 30
0.382683
 70
    64
  0
VERTEX
  8
0
 62
     0
 10
0.707107
 20
-0.707107
 30
0.0
 70
    64
  0
VERTEX
  8
0
 62
     0
 10
0.0
 20
0.0
 30
1.0
 70
    64
  0
VERTEX
  8
0
 62
     0
 10
0.382683
 20
0.0
 30
0.92388
 70
    64
  0
VERTEX
  8
0
 62
     0
 10
0.707107
 20
0.0
 30
0.707107
 70
    64
  0
VERTEX
  8
0
 62
     0
 10
0.92388
 20
0.0
 30
0.382683
 70
    64
  0
VERTEX
  8
0
 62
     0
 10
1.0
 20
0.0
 30
0.0
 70
    64
  0
VERTEX
  8
0
 62
     0
 10
0.0
 20
0.0
 30
1.0
 70
    64
  0
VERTEX
  8
0
 62
     0
 10
0.270598
 20
0.270598
 30
0.92388
 70
    64
  0
VERTEX
  8
0
 62
     0
 10
0.5
 20
0.5
 30
0.707107
 70
    64
  0
VERTEX
  8
0
 62
     0
 10
0.653281
 20
0.653281
 30
0.382683
 70
    64
  0
VERTEX
  8
0
 62
     0
 10
0.707107
 20
0.707107
 30
0.0
 70
    64
  0
VERTEX
  8
0
 62
     0
 10
0.0
 20
0.0
 30
1.0
 70
    64
  0
VERTEX
  8
0
 62
     0
 10
0.0
 20
0.382683
 30
0.92388
 70
    64
  0
VERTEX
  8
0
 62
     0
 10
0.0
 20
0.707107
 30
0.707107
 70
    64
  0
VERTEX
  8
0
 62
     0
 10
0.0
 20
0.92388
 30
0.382683
 70
    64
  0
VERTEX
  8
0
 62
     0
 10
0.0
 20
1.0
 30
0.0
 70
    64
  0
VERTEX
  8
0
 62
     0
 10
0.0
 20
0.0
 30
1.0
 70
    64
  0
VERTEX
  8
0
 62
     0
 10
-0.270598
 20
0.270598
 30
0.92388
 70
    64
  0
VERTEX
  8
0
 62
     0
 10
-0.5
 20
0.5
 30
0.707107
 70
    64
  0
VERTEX
  8
0
 62
     0
 10
-0.653281
 20
0.653281
 30
0.382683
 70
    64
  0
VERTEX
  8
0
 62
     0
 10
-0.707107
 20
0.707107
 30
0.0
 70
    64
  0
SEQEND
  8
0
 62
     0
  0
ENDBLK
  8
0
  0
BLOCK
  8
0
  2
DISK_Z
 70
    64
 10
0.0
 20
0.0
 30
0.0
  3
DISK_Z
  0
POLYLINE
  8
0
 62
     0
 66
     1
 10
0.0
 20
0.0
 30
0.0
 70
    48
 71
     2
 72
     8
  0
VERTEX
  8
0
 62
     0
 10
1.0
 20
0.0
 30
1.0
 70
    64
  0
VERTEX
  8
0
 62
     0
 10
0.707107
 20
0.707107
 30
1.0
 70
    64
  0
VERTEX
  8
0
 62
     0
 10
0.0
 20
1.0
 30
1.0
 70
    64
  0
VERTEX
  8
0
 62
     0
 10
-0.707107
 20
0.707107
 30
1.0
 70
    64
  0
VERTEX
  8
0
 62
     0
 10
-1.0
 20
0.0
 30
1.0
 70
    64
  0
VERTEX
  8
0
 62
     0
 10
-0.707107
 20
-0.707107
 30
1.0
 70
    64
  0
VERTEX
  8
0
 62
     0
 10
0.0
 20
-1.0
 30
1.0
 70
    64
  0
VERTEX
  8
0
 62
     0
 10
0.707107
 20
-0.707107
 30
1.0
 70
    64
  0
VERTEX
  8
0
 62
     0
 10
1.0
 20
0.0
 30
-1.0
 70
    64
  0
VERTEX
  8
0
 62
     0
 10
0.707107
 20
0.707107
 30
-1.0
 70
    64
  0
VERTEX
  8
0
 62
     0
 10
0.0
 20
1.0
 30
-1.0
 70
    64
  0
VERTEX
  8
0
 62
     0
 10
-0.707107
 20
0.707107
 30
-1.0
 70
    64
  0
VERTEX
  8
0
 62
     0
 10
-1.0
 20
0.0
 30
-1.0
 70
    64
  0
VERTEX
  8
0
 62
     0
 10
-0.707107
 20
-0.707107
 30
-1.0
 70
    64
  0
VERTEX
  8
0
 62
     0
 10
0.0
 20
-1.0
 30
-1.0
 70
    64
  0
VERTEX
  8
0
 62
     0
 10
0.707107
 20
-0.707107
 30
-1.0
 70
    64
  0
SEQEND
  8
0
 62
     0
  0
ENDBLK
  8
0
  0
BLOCK
  8
0
  2
ELLIPS
 70
    64
 10
0.0
 20
0.0
 30
0.0
  3
ELLIPS
  0
POLYLINE
  8
0
 62
     0
 66
     1
 10
0.0
 20
0.0
 30
0.0
 70
    17
 71
     8
 72
     9
  0
VERTEX
  8
0
 62
     0
 10
0.0
 20
0.0
 30
1.0
 70
    64
  0
VERTEX
  8
0
 62
     0
 10
-0.382683
 20
0.0
 30
0.92388
 70
    64
  0
VERTEX
  8
0
 62
     0
 10
-0.707107
 20
0.0
 30
0.707107
 70
    64
  0
VERTEX
  8
0
 62
     0
 10
-0.92388
 20
0.0
 30
0.382683
 70
    64
  0
VERTEX
  8
0
 62
     0
 10
-1.0
 20
0.0
 30
0.0
 70
    64
  0
VERTEX
  8
0
 62
     0
 10
-0.92388
 20
0.0
 30
-0.382683
 70
    64
  0
VERTEX
  8
0
 62
     0
 10
-0.707107
 20
0.0
 30
-0.707107
 70
    64
  0
VERTEX
  8
0
 62
     0
 10
-0.382683
 20
0.0
 30
-0.92388
 70
    64
  0
VERTEX
  8
0
 62
     0
 10
0.0
 20
0.0
 30
-1.0
 70
    64
  0
VERTEX
  8
0
 62
     0
 10
0.0
 20
0.0
 30
1.0
 70
    64
  0
VERTEX
  8
0
 62
     0
 10
-0.270598
 20
-0.270598
 30
0.92388
 70
    64
  0
VERTEX
  8
0
 62
     0
 10
-0.5
 20
-0.5
 30
0.707107
 70
    64
  0
VERTEX
  8
0
 62
     0
 10
-0.653281
 20
-0.653281
 30
0.382683
 70
    64
  0
VERTEX
  8
0
 62
     0
 10
-0.707107
 20
-0.707107
 30
0.0
 70
    64
  0
VERTEX
  8
0
 62
     0
 10
-0.653281
 20
-0.653281
 30
-0.382683
 70
    64
  0
VERTEX
  8
0
 62
     0
 10
-0.5
 20
-0.5
 30
-0.707107
 70
    64
  0
VERTEX
  8
0
 62
     0
 10
-0.270598
 20
-0.270598
 30
-0.92388
 70
    64
  0
VERTEX
  8
0
 62
     0
 10
0.0
 20
0.0
 30
-1.0
 70
    64
  0
VERTEX
  8
0
 62
     0
 10
0.0
 20
0.0
 30
1.0
 70
    64
  0
VERTEX
  8
0
 62
     0
 10
0.0
 20
-0.382683
 30
0.92388
 70
    64
  0
VERTEX
  8
0
 62
     0
 10
0.0
 20
-0.707107
 30
0.707107
 70
    64
  0
VERTEX
  8
0
 62
     0
 10
0.0
 20
-0.92388
 30
0.382683
 70
    64
  0
VERTEX
  8
0
 62
     0
 10
0.0
 20
-1.0
 30
0.0
 70
    64
  0
VERTEX
  8
0
 62
     0
 10
0.0
 20
-0.92388
 30
-0.382683
 70
    64
  0
VERTEX
  8
0
 62
     0
 10
0.0
 20
-0.707107
 30
-0.707107
 70
    64
  0
VERTEX
  8
0
 62
     0
 10
0.0
 20
-0.382683
 30
-0.92388
 70
    64
  0
VERTEX
  8
0
 62
     0
 10
0.0
 20
0.0
 30
-1.0
 70
    64
  0
VERTEX
  8
0
 62
     0
 10
0.0
 20
0.0
 30
1.0
 70
    64
  0
VERTEX
  8
0
 62
     0
 10
0.270598
 20
-0.270598
 30
0.92388
 70
    64
  0
VERTEX
  8
0
 62
     0
 10
0.5
 20
-0.5
 30
0.707107
 70
    64
  0
VERTEX
  8
0
 62
     0
 10
0.653281
 20
-0.653281
 30
0.382683
 70
    64
  0
VERTEX
  8
0
 62
     0
 10
0.707107
 20
-0.707107
 30
0.0
 70
    64
  0
VERTEX
  8
0
 62
     0
 10
0.653281
 20
-0.653281
 30
-0.382683
 70
    64
  0
VERTEX
  8
0
 62
     0
 10
0.5
 20
-0.5
 30
-0.707107
 70
    64
  0
VERTEX
  8
0
 62
     0
 10
0.270598
 20
-0.270598
 30
-0.92388
 70
    64
  0
VERTEX
  8
0
 62
     0
 10
0.0
 20
0.0
 30
-1.0
 70
    64
  0
VERTEX
  8
0
 62
     0
 10
0.0
 20
0.0
 30
1.0
 70
    64
  0
VERTEX
  8
0
 62
     0
 10
0.382683
 20
0.0
 30
0.92388
 70
    64
  0
VERTEX
  8
0
 62
     0
 10
0.707107
 20
0.0
 30
0.707107
 70
    64
  0
VERTEX
  8
0
 62
     0
 10
0.92388
 20
0.0
 30
0.382683
 70
    64
  0
VERTEX
  8
0
 62
     0
 10
1.0
 20
0.0
 30
0.0
 70
    64
  0
VERTEX
  8
0
 62
     0
 10
0.92388
 20
0.0
 30
-0.382683
 70
    64
  0
VERTEX
  8
0
 62
     0
 10
0.707107
 20
0.0
 30
-0.707107
 70
    64
  0
VERTEX
  8
0
 62
     0
 10
0.382683
 20
0.0
 30
-0.92388
 70
    64
  0
VERTEX
  8
0
 62
     0
 10
0.0
 20
0.0
 30
-1.0
 70
    64
  0
VERTEX
  8
0
 62
     0
 10
0.0
 20
0.0
 30
1.0
 70
    64
  0
VERTEX
  8
0
 62
     0
 10
0.270598
 20
0.270598
 30
0.92388
 70
    64
  0
VERTEX
  8
0
 62
     0
 10
0.5
 20
0.5
 30
0.707107
 70
    64
  0
VERTEX
  8
0
 62
     0
 10
0.653281
 20
0.653281
 30
0.382683
 70
    64
  0
VERTEX
  8
0
 62
     0
 10
0.707107
 20
0.707107
 30
0.0
 70
    64
  0
VERTEX
  8
0
 62
     0
 10
0.653281
 20
0.653281
 30
-0.382683
 70
    64
  0
VERTEX
  8
0
 62
     0
 10
0.5
 20
0.5
 30
-0.707107
 70
    64
  0
VERTEX
  8
0
 62
     0
 10
0.270598
 20
0.270598
 30
-0.92388
 70
    64
  0
VERTEX
  8
0
 62
     0
 10
0.0
 20
0.0
 30
-1.0
 70
    64
  0
VERTEX
  8
0
 62
     0
 10
0.0
 20
0.0
 30
1.0
 70
    64
  0
VERTEX
  8
0
 62
     0
 10
0.0
 20
0.382683
 30
0.92388
 70
    64
  0
VERTEX
  8
0
 62
     0
 10
0.0
 20
0.707107
 30
0.707107
 70
    64
  0
VERTEX
  8
0
 62
     0
 10
0.0
 20
0.92388
 30
0.382683
 70
    64
  0
VERTEX
  8
0
 62
     0
 10
0.0
 20
1.0
 30
0.0
 70
    64
  0
VERTEX
  8
0
 62
     0
 10
0.0
 20
0.92388
 30
-0.382683
 70
    64
  0
VERTEX
  8
0
 62
     0
 10
0.0
 20
0.707107
 30
-0.707107
 70
    64
  0
VERTEX
  8
0
 62
     0
 10
0.0
 20
0.382683
 30
-0.92388
 70
    64
  0
VERTEX
  8
0
 62
     0
 10
0.0
 20
0.0
 30
-1.0
 70
    64
  0
VERTEX
  8
0
 62
     0
 10
0.0
 20
0.0
 30
1.0
 70
    64
  0
VERTEX
  8
0
 62
     0
 10
-0.270598
 20
0.270598
 30
0.92388
 70
    64
  0
VERTEX
  8
0
 62
     0
 10
-0.5
 20
0.5
 30
0.707107
 70
    64
  0
VERTEX
  8
0
 62
     0
 10
-0.653281
 20
0.653281
 30
0.382683
 70
    64
  0
VERTEX
  8
0
 62
     0
 10
-0.707107
 20
0.707107
 30
0.0
 70
    64
  0
VERTEX
  8
0
 62
     0
 10
-0.653281
 20
0.653281
 30
-0.382683
 70
    64
  0
VERTEX
  8
0
 62
     0
 10
-0.5
 20
0.5
 30
-0.707107
 70
    64
  0
VERTEX
  8
0
 62
     0
 10
-0.270598
 20
0.270598
 30
-0.92388
 70
    64
  0
VERTEX
  8
0
 62
     0
 10
0.0
 20
0.0
 30
-1.0
 70
    64
  0
SEQEND
  8
0
 62
     0
  0
ENDBLK
  8
0
  0
BLOCK
  8
0
  2
ELBOW1
 70
    64
 10
0.0
 20
0.0
 30
0.0
  3
ELBOW1
  0
POLYLINE
  8
0
 62
     0
 66
     1
 10
0.0
 20
0.0
 30
0.0
 70
    48
 71
     7
 72
     6
  0
VERTEX
  8
0
 10
0.1
 20
0.0
 30
0.0
 70
    64
  0
VERTEX
  8
0
 10
0.05
 20
0.0
 30
0.086603
 70
    64
  0
VERTEX
  8
0
 10
-0.05
 20
0.0
 30
0.086603
 70
    64
  0
VERTEX
  8
0
 10
-0.1
 20
0.0
 30
0.0
 70
    64
  0
VERTEX
  8
0
 10
-0.05
 20
0.0
 30
-0.086603
 70
    64
  0
VERTEX
  8
0
 10
0.05
 20
0.0
 30
-0.086603
 70
    64
  0
VERTEX
  8
0
 10
0.130667
 20
0.232937
 30
0.0
 70
    64
  0
VERTEX
  8
0
 10
0.08237
 20
0.245878
 30
0.086603
 70
    64
  0
VERTEX
  8
0
 10
-0.014222
 20
0.27176
 30
0.086603
 70
    64
  0
VERTEX
  8
0
 10
-0.062518
 20
0.284701
 30
0.0
 70
    64
  0
VERTEX
  8
0
 10
-0.014222
 20
0.27176
 30
-0.086603
 70
    64
  0
VERTEX
  8
0
 10
0.08237
 20
0.245878
 30
-0.086603
 70
    64
  0
VERTEX
  8
0
 10
0.220577
 20
0.45
 30
0.0
 70
    64
  0
VERTEX
  8
0
 10
0.177276
 20
0.475
 30
0.086603
 70
    64
  0
VERTEX
  8
0
 10
0.090673
 20
0.525
 30
0.086603
 70
    64
  0
VERTEX
  8
0
 10
0.047372
 20
0.55
 30
0.0
 70
    64
  0
VERTEX
  8
0
 10
0.090673
 20
0.525
 30
-0.086603
 70
    64
  0
VERTEX
  8
0
 10
0.177276
 20
0.475
 30
-0.086603
 70
    64
  0
VERTEX
  8
0
 10
0.363604
 20
0.636396
 30
0.0
 70
    64
  0
VERTEX
  8
0
 10
0.328249
 20
0.671751
 30
0.086603
 70
    64
  0
VERTEX
  8
0
 10
0.257538
 20
0.742462
 30
0.086603
 70
    64
  0
VERTEX
  8
0
 10
0.222183
 20
0.777817
 30
0.0
 70
    64
  0
VERTEX
  8
0
 10
0.257538
 20
0.742462
 30
-0.086603
 70
    64
  0
VERTEX
  8
0
 10
0.328249
 20
0.671751
 30
-0.086603
 70
    64
  0
VERTEX
  8
0
 10
0.55
 20
0.779423
 30
0.0
 70
    64
  0
VERTEX
  8
0
 10
0.525
 20
0.822724
 30
0.086603
 70
    64
  0
VERTEX
  8
0
 10
0.475
 20
0.909327
 30
0.086603
 70
    64
  0
VERTEX
  8
0
 10
0.45
 20
0.952628
 30
0.0
 70
    64
  0
VERTEX
  8
0
 10
0.475
 20
0.909327
 30
-0.086603
 70
    64
  0
VERTEX
  8
0
 10
0.525
 20
0.822724
 30
-0.086603
 70
    64
  0
VERTEX
  8
0
 10
0.767063
 20
0.869333
 30
0.0
 70
    64
  0
VERTEX
  8
0
 10
0.754122
 20
0.91763
 30
0.086603
 70
    64
  0
VERTEX
  8
0
 10
0.72824
 20
1.014222
 30
0.086603
 70
    64
  0
VERTEX
  8
0
 10
0.715299
 20
1.062518
 30
0.0
 70
    64
  0
VERTEX
  8
0
 10
0.72824
 20
1.014222
 30
-0.086603
 70
    64
  0
VERTEX
  8
0
 10
0.754122
 20
0.91763
 30
-0.086603
 70
    64
  0
VERTEX
  8
0
 10
1.0
 20
0.9
 30
0.0
 70
    64
  0
VERTEX
  8
0
 10
1.0
 20
0.95
 30
0.086603
 70
    64
  0
VERTEX
  8
0
 10
1.0
 20
1.05
 30
0.086603
 70
    64
  0
VERTEX
  8
0
 10
1.0
 20
1.1
 30
0.0
 70
    64
  0
VERTEX
  8
0
 10
1.0
 20
1.05
 30
-0.086603
 70
    64
  0
VERTEX
  8
0
 10
1.0
 20
0.95
 30
-0.086603
 70
    64
  0
SEQEND
  8
0
  0
ENDBLK
  8
0
  0
BLOCK
  8
0
  2
ELBOW05
 70
    64
 10
0.0
 20
0.0
 30
0.0
  3
ELBOW05
  0
POLYLINE
  8
0
 62
     0
 66
     1
 10
0.0
 20
0.0
 30
0.0
 70
    48
 71
     7
 72
     6
  0
VERTEX
  8
0
 10
0.05
 20
0.0
 30
0.0
 70
    64
  0
VERTEX
  8
0
 10
0.025
 20
0.0
 30
0.043301
 70
    64
  0
VERTEX
  8
0
 10
-0.025
 20
0.0
 30
0.043301
 70
    64
  0
VERTEX
  8
0
 10
-0.05
 20
0.0
 30
0.0
 70
    64
  0
VERTEX
  8
0
 10
-0.025
 20
0.0
 30
-0.043301
 70
    64
  0
VERTEX
  8
0
 10
0.025
 20
0.0
 30
-0.043301
 70
    64
  0
VERTEX
  8
0
 10
0.08237
 20
0.245878
 30
0.0
 70
    64
  0
VERTEX
  8
0
 10
0.058222
 20
0.252349
 30
0.043301
 70
    64
  0
VERTEX
  8
0
 10
0.009926
 20
0.26529
 30
0.043301
 70
    64
  0
VERTEX
  8
0
 10
-0.014222
 20
0.27176
 30
0.0
 70
    64
  0
VERTEX
  8
0
 10
0.009926
 20
0.26529
 30
-0.043301
 70
    64
  0
VERTEX
  8
0
 10
0.058222
 20
0.252349
 30
-0.043301
 70
    64
  0
VERTEX
  8
0
 10
0.177276
 20
0.475
 30
0.0
 70
    64
  0
VERTEX
  8
0
 10
0.155625
 20
0.4875
 30
0.043301
 70
    64
  0
VERTEX
  8
0
 10
0.112324
 20
0.5125
 30
0.043301
 70
    64
  0
VERTEX
  8
0
 10
0.090673
 20
0.525
 30
0.0
 70
    64
  0
VERTEX
  8
0
 10
0.112324
 20
0.5125
 30
-0.043301
 70
    64
  0
VERTEX
  8
0
 10
0.155625
 20
0.4875
 30
-0.043301
 70
    64
  0
VERTEX
  8
0
 10
0.328249
 20
0.671751
 30
0.0
 70
    64
  0
VERTEX
  8
0
 10
0.310571
 20
0.689429
 30
0.043301
 70
    64
  0
VERTEX
  8
0
 10
0.275216
 20
0.724784
 30
0.043301
 70
    64
  0
VERTEX
  8
0
 10
0.257538
 20
0.742462
 30
0.0
 70
    64
  0
VERTEX
  8
0
 10
0.275216
 20
0.724784
 30
-0.043301
 70
    64
  0
VERTEX
  8
0
 10
0.310571
 20
0.689429
 30
-0.043301
 70
    64
  0
VERTEX
  8
0
 10
0.525
 20
0.822724
 30
0.0
 70
    64
  0
VERTEX
  8
0
 10
0.5125
 20
0.844375
 30
0.043301
 70
    64
  0
VERTEX
  8
0
 10
0.4875
 20
0.887676
 30
0.043301
 70
    64
  0
VERTEX
  8
0
 10
0.475
 20
0.909327
 30
0.0
 70
    64
  0
VERTEX
  8
0
 10
0.4875
 20
0.887676
 30
-0.043301
 70
    64
  0
VERTEX
  8
0
 10
0.5125
 20
0.844375
 30
-0.043301
 70
    64
  0
VERTEX
  8
0
 10
0.754122
 20
0.91763
 30
0.0
 70
    64
  0
VERTEX
  8
0
 10
0.747651
 20
0.941778
 30
0.043301
 70
    64
  0
VERTEX
  8
0
 10
0.73471
 20
0.990074
 30
0.043301
 70
    64
  0
VERTEX
  8
0
 10
0.72824
 20
1.014222
 30
0.0
 70
    64
  0
VERTEX
  8
0
 10
0.73471
 20
0.990074
 30
-0.043301
 70
    64
  0
VERTEX
  8
0
 10
0.747651
 20
0.941778
 30
-0.043301
 70
    64
  0
VERTEX
  8
0
 10
1.0
 20
0.95
 30
0.0
 70
    64
  0
VERTEX
  8
0
 10
1.0
 20
0.975
 30
0.043301
 70
    64
  0
VERTEX
  8
0
 10
1.0
 20
1.025
 30
0.043301
 70
    64
  0
VERTEX
  8
0
 10
1.0
 20
1.05
 30
0.0
 70
    64
  0
VERTEX
  8
0
 10
1.0
 20
1.025
 30
-0.043301
 70
    64
  0
VERTEX
  8
0
 10
1.0
 20
0.975
 30
-0.043301
 70
    64
  0
SEQEND
  8
0
  0
ENDBLK
  8
0
  0
BLOCK
  8
0
  2
DISK_Y
 70
    64
 10
0.0
 20
0.0
 30
0.0
  3
DISK_Y
  0
POLYLINE
  8
0
 62
     0
 66
     1
 10
0.0
 20
0.0
 30
0.0
 70
    48
 71
     2
 72
     8
  0
VERTEX
  8
0
 62
     0
 10
1.0
 20
-1.0
 30
0.0
 70
    64
  0
VERTEX
  8
0
 62
     0
 10
0.707107
 20
-1.0
 30
0.707107
 70
    64
  0
VERTEX
  8
0
 62
     0
 10
0.0
 20
-1.0
 30
1.0
 70
    64
  0
VERTEX
  8
0
 62
     0
 10
-0.707107
 20
-1.0
 30
0.707107
 70
    64
  0
VERTEX
  8
0
 62
     0
 10
-1.0
 20
-1.0
 30
0.0
 70
    64
  0
VERTEX
  8
0
 62
     0
 10
-0.707107
 20
-1.0
 30
-0.707107
 70
    64
  0
VERTEX
  8
0
 62
     0
 10
0.0
 20
-1.0
 30
-1.0
 70
    64
  0
VERTEX
  8
0
 62
     0
 10
0.707107
 20
-1.0
 30
-0.707107
 70
    64
  0
VERTEX
  8
0
 62
     0
 10
1.0
 20
1.0
 30
0.0
 70
    64
  0
VERTEX
  8
0
 62
     0
 10
0.707107
 20
1.0
 30
0.707107
 70
    64
  0
VERTEX
  8
0
 62
     0
 10
0.0
 20
1.0
 30
1.0
 70
    64
  0
VERTEX
  8
0
 62
     0
 10
-0.707107
 20
1.0
 30
0.707107
 70
    64
  0
VERTEX
  8
0
 62
     0
 10
-1.0
 20
1.0
 30
0.0
 70
    64
  0
VERTEX
  8
0
 62
     0
 10
-0.707107
 20
1.0
 30
-0.707107
 70
    64
  0
VERTEX
  8
0
 62
     0
 10
0.0
 20
1.0
 30
-1.0
 70
    64
  0
VERTEX
  8
0
 62
     0
 10
0.707107
 20
1.0
 30
-0.707107
 70
    64
  0
SEQEND
  8
0
 62
     0
  0
ENDBLK
  8
0
  0
BLOCK
  8
0
  2
CUBE
 70
    64
 10
0.0
 20
0.0
 30
0.0
  3
CUBE
  0
POLYLINE
  8
0
 62
     0
 66
     1
 10
0.0
 20
0.0
 30
0.0
 70
    16
 71
     6
 72
     3
  0
VERTEX
  8
0
 62
     0
 10
1.0
 20
-1.0
 30
1.0
 70
    64
  0
VERTEX
  8
0
 62
     0
 10
1.0
 20
-1.0
 30
-1.0
 70
    64
  0
VERTEX
  8
0
 62
     0
 10
1.0
 20
-1.0
 30
-1.0
 70
    64
  0
VERTEX
  8
0
 62
     0
 10
-1.0
 20
-1.0
 30
1.0
 70
    64
  0
VERTEX
  8
0
 62
     0
 10
-1.0
 20
-1.0
 30
-1.0
 70
    64
  0
VERTEX
  8
0
 62
     0
 10
-1.0
 20
-1.0
 30
-1.0
 70
    64
  0
VERTEX
  8
0
 62
     0
 10
-1.0
 20
1.0
 30
1.0
 70
    64
  0
VERTEX
  8
0
 62
     0
 10
-1.0
 20
1.0
 30
-1.0
 70
    64
  0
VERTEX
  8
0
 62
     0
 10
-1.0
 20
-1.0
 30
-1.0
 70
    64
  0
VERTEX
  8
0
 62
     0
 10
1.0
 20
1.0
 30
1.0
 70
    64
  0
VERTEX
  8
0
 62
     0
 10
1.0
 20
1.0
 30
-1.0
 70
    64
  0
VERTEX
  8
0
 62
     0
 10
1.0
 20
-1.0
 30
-1.0
 70
    64
  0
VERTEX
  8
0
 62
     0
 10
1.0
 20
1.0
 30
1.0
 70
    64
  0
VERTEX
  8
0
 62
     0
 10
1.0
 20
1.0
 30
1.0
 70
    64
  0
VERTEX
  8
0
 62
     0
 10
1.0
 20
-1.0
 30
1.0
 70
    64
  0
VERTEX
  8
0
 62
     0
 10
-1.0
 20
1.0
 30
1.0
 70
    64
  0
VERTEX
  8
0
 62
     0
 10
-1.0
 20
1.0
 30
1.0
 70
    64
  0
VERTEX
  8
0
 62
     0
 10
-1.0
 20
-1.0
 30
1.0
 70
    64
  0
SEQEND
  8
0
 62
     0
  0
ENDBLK
  8
0
  0
ENDSEC
  0
SECTION
  2
ENTITIES
  0
INSERT
  8
0
 62
    52
 66
     1
  2
ELLIPS
 10
0.0
 20
0.0
 30
0.0
210
0.0
220
-1.0
230
0.0
  0
ATTRIB
  8
0
 62
     0
 10
0.0
 20
0.0
 30
0.0
 40
0.2
  1
quadric
  2
TYPE
 70
     1
210
0.0
220
-1.0
230
0.0
  0
ATTRIB
  8
0
 62
     0
 10
0.0
 20
-0.333333
 30
0.0
 40
0.2
  1
Ellipsoid
  2
NAME
 70
     1
210
0.0
220
-1.0
230
0.0
  0
SEQEND
  8
0
 62
    52
  0
INSERT
  8
0
 62
    52
 66
     1
  2
ELLIPS_1
 10
0.0
 20
0.0
 30
-3.279519
 41
0.5
 42
0.5
 50
180.0
 43
2.5
210
0.0
220
0.0
230
-1.0
  0
ATTRIB
  8
0
 62
     0
 10
4.340069
 20
2.862071
 30
-0.417447
 40
0.2
  1
intersection
  2
TYPE
 70
     1
 50
180.0
210
0.0
220
0.0
230
-1.0
  0
ATTRIB
  8
0
 62
     0
 10
4.340069
 20
3.195405
 30
-0.417447
 40
0.2
  1
Ellipsoid_1
  2
NAME
 70
     1
 50
180.0
210
0.0
220
0.0
230
-1.0
  0
SEQEND
  8
0
 62
    52
  0
INSERT
  8
0
 62
    52
 66
     1
  2
ELLIPS_1
 10
0.0
 20
0.0
 30
3.185818
 41
0.6
 42
0.6
  0
ATTRIB
  8
0
 62
     0
 10
0.0
 20
0.0
 30
3.185818
 40
0.2
  1
intersection
  2
TYPE
 70
     1
  0
ATTRIB
  8
0
 62
     0
 10
0.0
 20
-0.333333
 30
3.185818
 40
0.2
  1
Ellipsoid_1
  2
NAME
 70
     1
  0
SEQEND
  8
0
 62
    52
  0
INSERT
  8
ARML
 62
     7
 66
     1
  2
DISK_Z
 10
8.084332
 20
0.0
 30
1.431276
 41
0.15
 42
0.15
 43
0.7
  0
ATTRIB
  8
0
 62
     0
 10
8.084332
 20
0.0
 30
1.431276
 40
0.015
  1
Disk_Z
  2
NAME
 70
     1
  0
ATTRIB
  8
0
 62
     0
 10
8.084332
 20
-0.025
 30
1.431276
 40
0.015
  1
intersection
  2
TYPE
 70
     1
  0
SEQEND
  8
ARML
 62
     7
  0
INSERT
  8
ARML
 62
    52
 66
     1
  2
ELLIPS_1
 10
-8.084332
 20
0.0
 30
-0.919903
 41
0.35
 42
0.35
 50
180.0
 43
0.35
210
0.0
220
0.0
230
-1.0
  0
ATTRIB
  8
0
 62
     0
 10
-8.084332
 20
0.0
 30
-0.919903
 40
0.07
  1
intersection
  2
TYPE
 70
     1
 50
180.0
210
0.0
220
0.0
230
-1.0
  0
ATTRIB
  8
0
 62
     0
 10
-8.084332
 20
0.116667
 30
-0.919903
 40
0.07
  1
Ellipsoid_1
  2
NAME
 70
     1
 50
180.0
210
0.0
220
0.0
230
-1.0
  0
SEQEND
  8
ARML
 62
    52
  0
INSERT
  8
ARML
 62
    52
 66
     1
  2
ELLIPS_1
 10
8.084332
 20
0.0
 30
0.417447
 41
0.3
 42
0.3
 43
0.2
  0
ATTRIB
  8
0
 62
     0
 10
8.084332
 20
0.0
 30
0.417447
 40
0.08
  1
intersection
  2
TYPE
 70
     1
  0
ATTRIB
  8
0
 62
     0
 10
8.084332
 20
-0.133333
 30
0.417447
 40
0.08
  1
Ellipsoid_1
  2
NAME
 70
     1
  0
SEQEND
  8
ARML
 62
    52
  0
INSERT
  8
ARML
 62
    40
 66
     1
  2
ELLIPS
 10
-8.084332
 20
2.458227
 30
0.0
 41
0.15
 42
0.3
 43
0.15
210
0.0
220
1.0
230
0.0
  0
ATTRIB
  8
0
 62
     0
 10
-8.084332
 20
2.458227
 30
0.0
 40
0.06
  1
quadric
  2
TYPE
 70
     1
210
0.0
220
1.0
230
0.0
  0
ATTRIB
  8
0
 62
     0
 10
-8.084332
 20
2.358227
 30
0.0
 40
0.06
  1
Ellipsoid
  2
NAME
 70
     1
210
0.0
220
1.0
230
0.0
  0
SEQEND
  8
ARML
  0
INSERT
  8
ARML
 62
    52
  2
ELBOW1
 10
0.610392
 20
0.431609
 30
0.0
 41
1.245819
 42
1.245819
 43
1.245819
210
0.0
220
-1.0
230
0.0
  0
INSERT
  8
ARML
 62
    52
  2
ELBOW1
 10
3.10203
 20
0.431609
 30
0.0
 41
-1.245819
 42
1.245819
 43
1.245819
210
0.0
220
-1.0
230
0.0
  0
INSERT
  8
ARML
 62
    52
  2
ELBOW05
 10
3.10203
 20
0.431609
 30
0.0
 41
-2.491638
 42
2.491638
 50
180.0
 43
2.491638
210
0.0
220
-1.0
230
0.0
  0
INSERT
  8
ARML
 62
    52
  2
ELBOW05
 10
8.085307
 20
0.431609
 30
0.0
 41
2.491638
 42
2.491638
 50
180.0
 43
2.491638
210
0.0
220
-1.0
230
0.0
  0
INSERT
  8
ARML
 62
    52
  2
ELBOW1
 10
0.610392
 20
0.431609
 30
0.0
 41
1.245819
 42
1.245819
 43
1.245819
210
0.5406408174555976
220
-0.8412535328311812
230
0.0
  0
INSERT
  8
ARML
 62
    52
  2
ELBOW1
 10
3.10203
 20
0.431609
 30
0.0
 41
-1.245819
 42
1.245819
 43
1.245819
210
0.5406408174555976
220
-0.8412535328311812
230
0.0
  0
INSERT
  8
ARML
 62
    52
  2
ELBOW05
 10
3.10203
 20
0.431609
 30
0.0
 41
-2.491638
 42
2.491638
 50
180.0
 43
2.491638
210
0.5406408174555976
220
-0.8412535328311812
230
0.0
  0
INSERT
  8
ARML
 62
    52
  2
ELBOW05
 10
8.085307
 20
0.431609
 30
0.0
 41
2.491638
 42
2.491638
 50
180.0
 43
2.491638
210
0.5406408174555976
220
-0.8412535328311812
230
0.0
  0
INSERT
  8
ARML
 62
    52
 66
     1
  2
ELLIPS_1
 10
6.800973
 20
4.37072
 30
0.417447
 41
0.3
 42
0.3
 50
32.727273
 43
0.2
  0
ATTRIB
  8
0
 62
     0
 10
6.800973
 20
4.37072
 30
0.417447
 40
0.08
  1
intersection
  2
TYPE
 70
     1
 50
32.727273
  0
ATTRIB
  8
0
 62
     0
 10
6.873058
 20
4.258553
 30
0.417447
 40
0.08
  1
Ellipsoid_1
  2
NAME
 70
     1
 50
32.727273
  0
SEQEND
  8
ARML
 62
    52
  0
INSERT
  8
ARML
 62
    52
 66
     1
  2
ELLIPS_1
 10
-6.800973
 20
4.37072
 30
-0.919903
 41
0.35
 42
0.35
 50
147.272727
 43
0.35
210
0.0
220
0.0
230
-1.0
  0
ATTRIB
  8
0
 62
     0
 10
-6.800973
 20
4.37072
 30
-0.919903
 40
0.07
  1
intersection
  2
TYPE
 70
     1
 50
147.272727
210
0.0
220
0.0
230
-1.0
  0
ATTRIB
  8
0
 62
     0
 10
-6.737898
 20
4.468866
 30
-0.919903
 40
0.07
  1
Ellipsoid_1
  2
NAME
 70
     1
 50
147.272727
210
0.0
220
0.0
230
-1.0
  0
SEQEND
  8
ARML
 62
    52
  0
INSERT
  8
ARML
 62
     7
 66
     1
  2
DISK_Z
 10
6.800973
 20
4.37072
 30
1.431276
 41
0.15
 42
0.15
 50
32.727273
 43
0.7
  0
ATTRIB
  8
0
 62
     0
 10
6.800973
 20
4.37072
 30
1.431276
 40
0.015
  1
Disk_Z
  2
NAME
 70
     1
 50
32.727273
  0
ATTRIB
  8
0
 62
     0
 10
6.814489
 20
4.349688
 30
1.431276
 40
0.015
  1
intersection
  2
TYPE
 70
     1
 50
32.727273
  0
SEQEND
  8
ARML
 62
     7
  0
INSERT
  8
ARML
 62
    40
 66
     1
  2
ELLIPS
 10
-8.084332
 20
2.458227
 30
0.0
 41
0.15
 42
0.3
 43
0.15
210
-0.5406408174555976
220
0.8412535328311812
230
0.0
  0
ATTRIB
  8
0
 62
     0
 10
-8.084332
 20
2.458227
 30
0.0
 40
0.06
  1
quadric
  2
TYPE
 70
     1
210
-0.5406408174555976
220
0.8412535328311812
230
0.0
  0
ATTRIB
  8
0
 62
     0
 10
-8.084332
 20
2.358227
 30
0.0
 40
0.06
  1
Ellipsoid
  2
NAME
 70
     1
210
-0.5406408174555976
220
0.8412535328311812
230
0.0
  0
SEQEND
  8
ARML
  0
INSERT
  8
ARML
 62
    52
  2
ELBOW1
 10
0.610392
 20
0.431609
 30
0.0
 41
1.245819
 42
1.245819
 43
1.245819
210
0.9096319953545184
220
-0.4154150130018862
230
0.0
  0
INSERT
  8
ARML
 62
    52
  2
ELBOW1
 10
3.10203
 20
0.431609
 30
0.0
 41
-1.245819
 42
1.245819
 43
1.245819
210
0.9096319953545184
220
-0.4154150130018862
230
0.0
  0
INSERT
  8
ARML
 62
    52
  2
ELBOW05
 10
3.10203
 20
0.431609
 30
0.0
 41
-2.491638
 42
2.491638
 50
180.0
 43
2.491638
210
0.9096319953545184
220
-0.4154150130018862
230
0.0
  0
INSERT
  8
ARML
 62
    52
  2
ELBOW05
 10
8.085307
 20
0.431609
 30
0.0
 41
2.491638
 42
2.491638
 50
180.0
 43
2.491638
210
0.9096319953545184
220
-0.4154150130018862
230
0.0
  0
INSERT
  8
ARML
 62
    52
 66
     1
  2
ELLIPS_1
 10
3.358353
 20
7.353767
 30
0.417447
 41
0.3
 42
0.3
 50
65.454545
 43
0.2
  0
ATTRIB
  8
0
 62
     0
 10
3.358353
 20
7.353767
 30
0.417447
 40
0.08
  1
intersection
  2
TYPE
 70
     1
 50
65.454545
  0
ATTRIB
  8
0
 62
     0
 10
3.479637
 20
7.298378
 30
0.417447
 40
0.08
  1
Ellipsoid_1
  2
NAME
 70
     1
 50
65.454545
  0
SEQEND
  8
ARML
 62
    52
  0
INSERT
  8
ARML
 62
    52
 66
     1
  2
ELLIPS_1
 10
-3.358353
 20
7.353767
 30
-0.919903
 41
0.35
 42
0.35
 50
114.545455
 43
0.35
210
0.0
220
0.0
230
-1.0
  0
ATTRIB
  8
0
 62
     0
 10
-3.358353
 20
7.353767
 30
-0.919903
 40
0.07
  1
intersection
  2
TYPE
 70
     1
 50
114.545455
210
0.0
220
0.0
230
-1.0
  0
ATTRIB
  8
0
 62
     0
 10
-3.252229
 20
7.402232
 30
-0.919903
 40
0.07
  1
Ellipsoid_1
  2
NAME
 70
     1
 50
114.545455
210
0.0
220
0.0
230
-1.0
  0
SEQEND
  8
ARML
 62
    52
  0
INSERT
  8
ARML
 62
     7
 66
     1
  2
DISK_Z
 10
3.358353
 20
7.353767
 30
1.431276
 41
0.15
 42
0.15
 50
65.454545
 43
0.7
  0
ATTRIB
  8
0
 62
     0
 10
3.358353
 20
7.353767
 30
1.431276
 40
0.015
  1
Disk_Z
  2
NAME
 70
     1
 50
65.454545
  0
ATTRIB
  8
0
 62
     0
 10
3.381094
 20
7.343381
 30
1.431276
 40
0.015
  1
intersection
  2
TYPE
 70
     1
 50
65.454545
  0
SEQEND
  8
ARML
 62
     7
  0
INSERT
  8
ARML
 62
    40
 66
     1
  2
ELLIPS
 10
-8.084332
 20
2.458227
 30
0.0
 41
0.15
 42
0.3
 43
0.15
210
-0.9096319953545184
220
0.4154150130018862
230
0.0
  0
ATTRIB
  8
0
 62
     0
 10
-8.084332
 20
2.458227
 30
0.0
 40
0.06
  1
quadric
  2
TYPE
 70
     1
210
-0.9096319953545184
220
0.4154150130018862
230
0.0
  0
ATTRIB
  8
0
 62
     0
 10
-8.084332
 20
2.358227
 30
0.0
 40
0.06
  1
Ellipsoid
  2
NAME
 70
     1
210
-0.9096319953545184
220
0.4154150130018862
230
0.0
  0
SEQEND
  8
ARML
  0
INSERT
  8
ARML
 62
    52
  2
ELBOW1
 10
0.610392
 20
0.431609
 30
0.0
 41
1.245819
 42
1.245819
 43
1.245819
210
0.9898214418809328
220
0.1423148382732851
230
0.0
  0
INSERT
  8
ARML
 62
    52
  2
ELBOW1
 10
3.10203
 20
0.431609
 30
0.0
 41
-1.245819
 42
1.245819
 43
1.245819
210
0.9898214418809328
220
0.1423148382732851
230
0.0
  0
INSERT
  8
ARML
 62
    52
  2
ELBOW05
 10
3.10203
 20
0.431609
 30
0.0
 41
-2.491638
 42
2.491638
 50
180.0
 43
2.491638
210
0.9898214418809328
220
0.1423148382732851
230
0.0
  0
INSERT
  8
ARML
 62
    52
  2
ELBOW05
 10
8.085307
 20
0.431609
 30
0.0
 41
2.491638
 42
2.491638
 50
180.0
 43
2.491638
210
0.9898214418809328
220
0.1423148382732851
230
0.0
  0
INSERT
  8
ARML
 62
    52
 66
     1
  2
ELLIPS_1
 10
-1.15052
 20
8.002045
 30
0.417447
 41
0.3
 42
0.3
 50
98.181818
 43
0.2
  0
ATTRIB
  8
0
 62
     0
 10
-1.15052
 20
8.002045
 30
0.417447
 40
0.08
  1
intersection
  2
TYPE
 70
     1
 50
98.181818
  0
ATTRIB
  8
0
 62
     0
 10
-1.018544
 20
8.02102
 30
0.417447
 40
0.08
  1
Ellipsoid_1
  2
NAME
 70
     1
 50
98.181818
  0
SEQEND
  8
ARML
 62
    52
  0
INSERT
  8
ARML
 62
    52
 66
     1
  2
ELLIPS_1
 10
1.15052
 20
8.002045
 30
-0.919903
 41
0.35
 42
0.35
 50
81.818182
 43
0.35
210
0.0
220
0.0
230
-1.0
  0
ATTRIB
  8
0
 62
     0
 10
1.15052
 20
8.002045
 30
-0.919903
 40
0.07
  1
intersection
  2
TYPE
 70
     1
 50
81.818182
210
0.0
220
0.0
230
-1.0
  0
ATTRIB
  8
0
 62
     0
 10
1.266
 20
7.985441
 30
-0.919903
 40
0.07
  1
Ellipsoid_1
  2
NAME
 70
     1
 50
81.818182
210
0.0
220
0.0
230
-1.0
  0
SEQEND
  8
ARML
 62
    52
  0
INSERT
  8
ARML
 62
     7
 66
     1
  2
DISK_Z
 10
-1.15052
 20
8.002045
 30
1.431276
 41
0.15
 42
0.15
 50
98.181818
 43
0.7
  0
ATTRIB
  8
0
 62
     0
 10
-1.15052
 20
8.002045
 30
1.431276
 40
0.015
  1
Disk_Z
  2
NAME
 70
     1
 50
98.181818
  0
ATTRIB
  8
0
 62
     0
 10
-1.125775
 20
8.005603
 30
1.431276
 40
0.015
  1
intersection
  2
TYPE
 70
     1
 50
98.181818
  0
SEQEND
  8
ARML
 62
     7
  0
INSERT
  8
ARML
 62
    40
 66
     1
  2
ELLIPS
 10
-8.084332
 20
2.458227
 30
0.0
 41
0.15
 42
0.3
 43
0.15
210
-0.9898214418809328
220
-0.1423148382732851
230
0.0
  0
ATTRIB
  8
0
 62
     0
 10
-8.084332
 20
2.458227
 30
0.0
 40
0.06
  1
quadric
  2
TYPE
 70
     1
210
-0.9898214418809328
220
-0.1423148382732851
230
0.0
  0
ATTRIB
  8
0
 62
     0
 10
-8.084332
 20
2.358227
 30
0.0
 40
0.06
  1
Ellipsoid
  2
NAME
 70
     1
210
-0.9898214418809328
220
-0.1423148382732851
230
0.0
  0
SEQEND
  8
ARML
  0
INSERT
  8
ARML
 62
    52
  2
ELBOW1
 10
0.610392
 20
0.431609
 30
0.0
 41
1.245819
 42
1.245819
 43
1.245819
210
0.7557495743542583
220
0.6548607339452851
230
0.0
  0
INSERT
  8
ARML
 62
    52
  2
ELBOW1
 10
3.10203
 20
0.431609
 30
0.0
 41
-1.245819
 42
1.245819
 43
1.245819
210
0.7557495743542583
220
0.6548607339452851
230
0.0
  0
INSERT
  8
ARML
 62
    52
  2
ELBOW05
 10
3.10203
 20
0.431609
 30
0.0
 41
-2.491638
 42
2.491638
 50
180.0
 43
2.491638
210
0.7557495743542583
220
0.6548607339452851
230
0.0
  0
INSERT
  8
ARML
 62
    52
  2
ELBOW05
 10
8.085307
 20
0.431609
 30
0.0
 41
2.491638
 42
2.491638
 50
180.0
 43
2.491638
210
0.7557495743542583
220
0.6548607339452851
230
0.0
  0
INSERT
  8
ARML
 62
    52
 66
     1
  2
ELLIPS_1
 10
-5.294111
 20
6.10973
 30
0.417447
 41
0.3
 42
0.3
 50
130.909091
 43
0.2
  0
ATTRIB
  8
0
 62
     0
 10
-5.294111
 20
6.10973
 30
0.417447
 40
0.08
  1
intersection
  2
TYPE
 70
     1
 50
130.909091
  0
ATTRIB
  8
0
 62
     0
 10
-5.193345
 20
6.197045
 30
0.417447
 40
0.08
  1
Ellipsoid_1
  2
NAME
 70
     1
 50
130.909091
  0
SEQEND
  8
ARML
 62
    52
  0
INSERT
  8
ARML
 62
    52
 66
     1
  2
ELLIPS_1
 10
5.294111
 20
6.10973
 30
-0.919903
 41
0.35
 42
0.35
 50
49.090909
 43
0.35
210
0.0
220
0.0
230
-1.0
  0
ATTRIB
  8
0
 62
     0
 10
5.294111
 20
6.10973
 30
-0.919903
 40
0.07
  1
intersection
  2
TYPE
 70
     1
 50
49.090909
210
0.0
220
0.0
230
-1.0
  0
ATTRIB
  8
0
 62
     0
 10
5.382282
 20
6.03333
 30
-0.919903
 40
0.07
  1
Ellipsoid_1
  2
NAME
 70
     1
 50
49.090909
210
0.0
220
0.0
230
-1.0
  0
SEQEND
  8
ARML
 62
    52
  0
INSERT
  8
ARML
 62
     7
 66
     1
  2
DISK_Z
 10
-5.294111
 20
6.10973
 30
1.431276
 41
0.15
 42
0.15
 50
130.909091
 43
0.7
  0
ATTRIB
  8
0
 62
     0
 10
-5.294111
 20
6.10973
 30
1.431276
 40
0.015
  1
Disk_Z
  2
NAME
 70
     1
 50
130.909091
  0
ATTRIB
  8
0
 62
     0
 10
-5.275218
 20
6.126102
 30
1.431276
 40
0.015
  1
intersection
  2
TYPE
 70
     1
 50
130.909091
  0
SEQEND
  8
ARML
 62
     7
  0
INSERT
  8
ARML
 62
    40
 66
     1
  2
ELLIPS
 10
-8.084332
 20
2.458227
 30
0.0
 41
0.15
 42
0.3
 43
0.15
210
-0.7557495743542583
220
-0.6548607339452851
230
0.0
  0
ATTRIB
  8
0
 62
     0
 10
-8.084332
 20
2.458227
 30
0.0
 40
0.06
  1
quadric
  2
TYPE
 70
     1
210
-0.7557495743542583
220
-0.6548607339452851
230
0.0
  0
ATTRIB
  8
0
 62
     0
 10
-8.084332
 20
2.358227
 30
0.0
 40
0.06
  1
Ellipsoid
  2
NAME
 70
     1
210
-0.7557495743542583
220
-0.6548607339452851
230
0.0
  0
SEQEND
  8
ARML
  0
INSERT
  8
ARML
 62
    52
  2
ELBOW1
 10
0.610392
 20
0.431609
 30
0.0
 41
1.245819
 42
1.245819
 43
1.245819
210
0.2817325568414295
220
0.9594929736144975
230
0.0
  0
INSERT
  8
ARML
 62
    52
  2
ELBOW1
 10
3.10203
 20
0.431609
 30
0.0
 41
-1.245819
 42
1.245819
 43
1.245819
210
0.2817325568414295
220
0.9594929736144975
230
0.0
  0
INSERT
  8
ARML
 62
    52
  2
ELBOW05
 10
3.10203
 20
0.431609
 30
0.0
 41
-2.491638
 42
2.491638
 50
180.0
 43
2.491638
210
0.2817325568414295
220
0.9594929736144975
230
0.0
  0
INSERT
  8
ARML
 62
    52
  2
ELBOW05
 10
8.085307
 20
0.431609
 30
0.0
 41
2.491638
 42
2.491638
 50
180.0
 43
2.491638
210
0.2817325568414295
220
0.9594929736144975
230
0.0
  0
INSERT
  8
ARML
 62
    52
 66
     1
  2
ELLIPS_1
 10
-7.756859
 20
2.277619
 30
0.417447
 41
0.3
 42
0.3
 50
163.636364
 43
0.2
  0
ATTRIB
  8
0
 62
     0
 10
-7.756859
 20
2.277619
 30
0.417447
 40
0.08
  1
intersection
  2
TYPE
 70
     1
 50
163.636364
  0
ATTRIB
  8
0
 62
     0
 10
-7.719295
 20
2.405552
 30
0.417447
 40
0.08
  1
Ellipsoid_1
  2
NAME
 70
     1
 50
163.636364
  0
SEQEND
  8
ARML
 62
    52
  0
INSERT
  8
ARML
 62
    52
 66
     1
  2
ELLIPS_1
 10
7.756859
 20
2.277619
 30
-0.919903
 41
0.35
 42
0.35
 50
16.363636
 43
0.35
210
0.0
220
0.0
230
-1.0
  0
ATTRIB
  8
0
 62
     0
 10
7.756859
 20
2.277619
 30
-0.919903
 40
0.07
  1
intersection
  2
TYPE
 70
     1
 50
16.363636
210
0.0
220
0.0
230
-1.0
  0
ATTRIB
  8
0
 62
     0
 10
7.789728
 20
2.165679
 30
-0.919903
 40
0.07
  1
Ellipsoid_1
  2
NAME
 70
     1
 50
16.363636
210
0.0
220
0.0
230
-1.0
  0
SEQEND
  8
ARML
 62
    52
  0
INSERT
  8
ARML
 62
     7
 66
     1
  2
DISK_Z
 10
-7.756859
 20
2.277619
 30
1.431276
 41
0.15
 42
0.15
 50
163.636364
 43
0.7
  0
ATTRIB
  8
0
 62
     0
 10
-7.756859
 20
2.277619
 30
1.431276
 40
0.015
  1
Disk_Z
  2
NAME
 70
     1
 50
163.636364
  0
ATTRIB
  8
0
 62
     0
 10
-7.749816
 20
2.301607
 30
1.431276
 40
0.015
  1
intersection
  2
TYPE
 70
     1
 50
163.636364
  0
SEQEND
  8
ARML
 62
     7
  0
INSERT
  8
ARML
 62
    40
 66
     1
  2
ELLIPS
 10
-8.084332
 20
2.458227
 30
0.0
 41
0.15
 42
0.3
 43
0.15
210
-0.2817325568414295
220
-0.9594929736144975
230
0.0
  0
ATTRIB
  8
0
 62
     0
 10
-8.084332
 20
2.458227
 30
0.0
 40
0.06
  1
quadric
  2
TYPE
 70
     1
210
-0.2817325568414295
220
-0.9594929736144975
230
0.0
  0
ATTRIB
  8
0
 62
     0
 10
-8.084332
 20
2.358227
 30
0.0
 40
0.06
  1
Ellipsoid
  2
NAME
 70
     1
210
-0.2817325568414295
220
-0.9594929736144975
230
0.0
  0
SEQEND
  8
ARML
  0
INSERT
  8
ARML
 62
    52
  2
ELBOW1
 10
0.610392
 20
0.431609
 30
0.0
 41
1.245819
 42
1.245819
 43
1.245819
210
-0.2817325568414299
220
0.9594929736144975
230
0.0
  0
INSERT
  8
ARML
 62
    52
  2
ELBOW1
 10
3.10203
 20
0.431609
 30
0.0
 41
-1.245819
 42
1.245819
 43
1.245819
210
-0.2817325568414299
220
0.9594929736144975
230
0.0
  0
INSERT
  8
ARML
 62
    52
  2
ELBOW05
 10
3.10203
 20
0.431609
 30
0.0
 41
-2.491638
 42
2.491638
 50
180.0
 43
2.491638
210
-0.2817325568414299
220
0.9594929736144975
230
0.0
  0
INSERT
  8
ARML
 62
    52
  2
ELBOW05
 10
8.085307
 20
0.431609
 30
0.0
 41
2.491638
 42
2.491638
 50
180.0
 43
2.491638
210
-0.2817325568414299
220
0.9594929736144975
230
0.0
  0
INSERT
  8
ARML
 62
    52
 66
     1
  2
ELLIPS_1
 10
-7.756859
 20
-2.277619
 30
0.417447
 41
0.3
 42
0.3
 50
196.363636
 43
0.2
  0
ATTRIB
  8
0
 62
     0
 10
-7.756859
 20
-2.277619
 30
0.417447
 40
0.08
  1
intersection
  2
TYPE
 70
     1
 50
196.363636
  0
ATTRIB
  8
0
 62
     0
 10
-7.794424
 20
-2.149687
 30
0.417447
 40
0.08
  1
Ellipsoid_1
  2
NAME
 70
     1
 50
196.363636
  0
SEQEND
  8
ARML
 62
    52
  0
INSERT
  8
ARML
 62
    52
 66
     1
  2
ELLIPS_1
 10
7.756859
 20
-2.277619
 30
-0.919903
 41
0.35
 42
0.35
 50
343.636364
 43
0.35
210
0.0
220
0.0
230
-1.0
  0
ATTRIB
  8
0
 62
     0
 10
7.756859
 20
-2.277619
 30
-0.919903
 40
0.07
  1
intersection
  2
TYPE
 70
     1
 50
343.636364
210
0.0
220
0.0
230
-1.0
  0
ATTRIB
  8
0
 62
     0
 10
7.723991
 20
-2.38956
 30
-0.919903
 40
0.07
  1
Ellipsoid_1
  2
NAME
 70
     1
 50
343.636364
210
0.0
220
0.0
230
-1.0
  0
SEQEND
  8
ARML
 62
    52
  0
INSERT
  8
ARML
 62
     7
 66
     1
  2
DISK_Z
 10
-7.756859
 20
-2.277619
 30
1.431276
 41
0.15
 42
0.15
 50
196.363636
 43
0.7
  0
ATTRIB
  8
0
 62
     0
 10
-7.756859
 20
-2.277619
 30
1.431276
 40
0.015
  1
Disk_Z
  2
NAME
 70
     1
 50
196.363636
  0
ATTRIB
  8
0
 62
     0
 10
-7.763903
 20
-2.253632
 30
1.431276
 40
0.015
  1
intersection
  2
TYPE
 70
     1
 50
196.363636
  0
SEQEND
  8
ARML
 62
     7
  0
INSERT
  8
ARML
 62
    40
 66
     1
  2
ELLIPS
 10
-8.084332
 20
2.458227
 30
0.0
 41
0.15
 42
0.3
 43
0.15
210
0.2817325568414299
220
-0.9594929736144975
230
0.0
  0
ATTRIB
  8
0
 62
     0
 10
-8.084332
 20
2.458227
 30
0.0
 40
0.06
  1
quadric
  2
TYPE
 70
     1
210
0.2817325568414299
220
-0.9594929736144975
230
0.0
  0
ATTRIB
  8
0
 62
     0
 10
-8.084332
 20
2.358227
 30
0.0
 40
0.06
  1
Ellipsoid
  2
NAME
 70
     1
210
0.2817325568414299
220
-0.9594929736144975
230
0.0
  0
SEQEND
  8
ARML
  0
INSERT
  8
ARML
 62
    52
  2
ELBOW1
 10
0.610392
 20
0.431609
 30
0.0
 41
1.245819
 42
1.245819
 43
1.245819
210
-0.7557495743542586
220
0.6548607339452848
230
0.0
  0
INSERT
  8
ARML
 62
    52
  2
ELBOW1
 10
3.10203
 20
0.431609
 30
0.0
 41
-1.245819
 42
1.245819
 43
1.245819
210
-0.7557495743542586
220
0.6548607339452848
230
0.0
  0
INSERT
  8
ARML
 62
    52
  2
ELBOW05
 10
3.10203
 20
0.431609
 30
0.0
 41
-2.491638
 42
2.491638
 50
180.0
 43
2.491638
210
-0.7557495743542586
220
0.6548607339452848
230
0.0
  0
INSERT
  8
ARML
 62
    52
  2
ELBOW05
 10
8.085307
 20
0.431609
 30
0.0
 41
2.491638
 42
2.491638
 50
180.0
 43
2.491638
210
-0.7557495743542586
220
0.6548607339452848
230
0.0
  0
INSERT
  8
ARML
 62
    52
 66
     1
  2
ELLIPS_1
 10
-5.294111
 20
-6.10973
 30
0.417447
 41
0.3
 42
0.3
 50
229.090909
 43
0.2
  0
ATTRIB
  8
0
 62
     0
 10
-5.294111
 20
-6.10973
 30
0.417447
 40
0.08
  1
intersection
  2
TYPE
 70
     1
 50
229.090909
  0
ATTRIB
  8
0
 62
     0
 10
-5.394878
 20
-6.022415
 30
0.417447
 40
0.08
  1
Ellipsoid_1
  2
NAME
 70
     1
 50
229.090909
  0
SEQEND
  8
ARML
 62
    52
  0
INSERT
  8
ARML
 62
    52
 66
     1
  2
ELLIPS_1
 10
5.294111
 20
-6.10973
 30
-0.919903
 41
0.35
 42
0.35
 50
310.909091
 43
0.35
210
0.0
220
0.0
230
-1.0
  0
ATTRIB
  8
0
 62
     0
 10
5.294111
 20
-6.10973
 30
-0.919903
 40
0.07
  1
intersection
  2
TYPE
 70
     1
 50
310.909091
210
0.0
220
0.0
230
-1.0
  0
ATTRIB
  8
0
 62
     0
 10
5.205941
 20
-6.186131
 30
-0.919903
 40
0.07
  1
Ellipsoid_1
  2
NAME
 70
     1
 50
310.909091
210
0.0
220
0.0
230
-1.0
  0
SEQEND
  8
ARML
 62
    52
  0
INSERT
  8
ARML
 62
     7
 66
     1
  2
DISK_Z
 10
-5.294111
 20
-6.10973
 30
1.431276
 41
0.15
 42
0.15
 50
229.090909
 43
0.7
  0
ATTRIB
  8
0
 62
     0
 10
-5.294111
 20
-6.10973
 30
1.431276
 40
0.015
  1
Disk_Z
  2
NAME
 70
     1
 50
229.090909
  0
ATTRIB
  8
0
 62
     0
 10
-5.313005
 20
-6.093359
 30
1.431276
 40
0.015
  1
intersection
  2
TYPE
 70
     1
 50
229.090909
  0
SEQEND
  8
ARML
 62
     7
  0
INSERT
  8
ARML
 62
    40
 66
     1
  2
ELLIPS
 10
-8.084332
 20
2.458227
 30
0.0
 41
0.15
 42
0.3
 43
0.15
210
0.7557495743542586
220
-0.6548607339452848
230
0.0
  0
ATTRIB
  8
0
 62
     0
 10
-8.084332
 20
2.458227
 30
0.0
 40
0.06
  1
quadric
  2
TYPE
 70
     1
210
0.7557495743542586
220
-0.6548607339452848
230
0.0
  0
ATTRIB
  8
0
 62
     0
 10
-8.084332
 20
2.358227
 30
0.0
 40
0.06
  1
Ellipsoid
  2
NAME
 70
     1
210
0.7557495743542586
220
-0.6548607339452848
230
0.0
  0
SEQEND
  8
ARML
  0
INSERT
  8
ARML
 62
    52
  2
ELBOW1
 10
0.610392
 20
0.431609
 30
0.0
 41
1.245819
 42
1.245819
 43
1.245819
210
-0.9898214418809328
220
0.1423148382732851
230
0.0
  0
INSERT
  8
ARML
 62
    52
  2
ELBOW1
 10
3.10203
 20
0.431609
 30
0.0
 41
-1.245819
 42
1.245819
 43
1.245819
210
-0.9898214418809328
220
0.1423148382732851
230
0.0
  0
INSERT
  8
ARML
 62
    52
  2
ELBOW05
 10
3.10203
 20
0.431609
 30
0.0
 41
-2.491638
 42
2.491638
 50
180.0
 43
2.491638
210
-0.9898214418809328
220
0.1423148382732851
230
0.0
  0
INSERT
  8
ARML
 62
    52
  2
ELBOW05
 10
8.085307
 20
0.431609
 30
0.0
 41
2.491638
 42
2.491638
 50
180.0
 43
2.491638
210
-0.9898214418809328
220
0.1423148382732851
230
0.0
  0
INSERT
  8
ARML
 62
    52
 66
     1
  2
ELLIPS_1
 10
-1.15052
 20
-8.002045
 30
0.417447
 41
0.3
 42
0.3
 50
261.818182
 43
0.2
  0
ATTRIB
  8
0
 62
     0
 10
-1.15052
 20
-8.002045
 30
0.417447
 40
0.08
  1
intersection
  2
TYPE
 70
     1
 50
261.818182
  0
ATTRIB
  8
0
 62
     0
 10
-1.282497
 20
-7.983069
 30
0.417447
 40
0.08
  1
Ellipsoid_1
  2
NAME
 70
     1
 50
261.818182
  0
SEQEND
  8
ARML
 62
    52
  0
INSERT
  8
ARML
 62
    52
 66
     1
  2
ELLIPS_1
 10
1.15052
 20
-8.002045
 30
-0.919903
 41
0.35
 42
0.35
 50
278.181818
 43
0.35
210
0.0
220
0.0
230
-1.0
  0
ATTRIB
  8
0
 62
     0
 10
1.15052
 20
-8.002045
 30
-0.919903
 40
0.07
  1
intersection
  2
TYPE
 70
     1
 50
278.181818
210
0.0
220
0.0
230
-1.0
  0
ATTRIB
  8
0
 62
     0
 10
1.035041
 20
-8.018648
 30
-0.919903
 40
0.07
  1
Ellipsoid_1
  2
NAME
 70
     1
 50
278.181818
210
0.0
220
0.0
230
-1.0
  0
SEQEND
  8
ARML
 62
    52
  0
INSERT
  8
ARML
 62
     7
 66
     1
  2
DISK_Z
 10
-1.15052
 20
-8.002045
 30
1.431276
 41
0.15
 42
0.15
 50
261.818182
 43
0.7
  0
ATTRIB
  8
0
 62
     0
 10
-1.15052
 20
-8.002045
 30
1.431276
 40
0.015
  1
Disk_Z
  2
NAME
 70
     1
 50
261.818182
  0
ATTRIB
  8
0
 62
     0
 10
-1.175266
 20
-7.998487
 30
1.431276
 40
0.015
  1
intersection
  2
TYPE
 70
     1
 50
261.818182
  0
SEQEND
  8
ARML
 62
     7
  0
INSERT
  8
ARML
 62
    40
 66
     1
  2
ELLIPS
 10
-8.084332
 20
2.458227
 30
0.0
 41
0.15
 42
0.3
 43
0.15
210
0.9898214418809328
220
-0.1423148382732851
230
0.0
  0
ATTRIB
  8
0
 62
     0
 10
-8.084332
 20
2.458227
 30
0.0
 40
0.06
  1
quadric
  2
TYPE
 70
     1
210
0.9898214418809328
220
-0.1423148382732851
230
0.0
  0
ATTRIB
  8
0
 62
     0
 10
-8.084332
 20
2.358227
 30
0.0
 40
0.06
  1
Ellipsoid
  2
NAME
 70
     1
210
0.9898214418809328
220
-0.1423148382732851
230
0.0
  0
SEQEND
  8
ARML
  0
INSERT
  8
ARML
 62
    52
  2
ELBOW1
 10
0.610392
 20
0.431609
 30
0.0
 41
1.245819
 42
1.245819
 43
1.245819
210
-0.9096319953545184
220
-0.4154150130018862
230
0.0
  0
INSERT
  8
ARML
 62
    52
  2
ELBOW1
 10
3.10203
 20
0.431609
 30
0.0
 41
-1.245819
 42
1.245819
 43
1.245819
210
-0.9096319953545184
220
-0.4154150130018862
230
0.0
  0
INSERT
  8
ARML
 62
    52
  2
ELBOW05
 10
3.10203
 20
0.431609
 30
0.0
 41
-2.491638
 42
2.491638
 50
180.0
 43
2.491638
210
-0.9096319953545184
220
-0.4154150130018862
230
0.0
  0
INSERT
  8
ARML
 62
    52
  2
ELBOW05
 10
8.085307
 20
0.431609
 30
0.0
 41
2.491638
 42
2.491638
 50
180.0
 43
2.491638
210
-0.9096319953545184
220
-0.4154150130018862
230
0.0
  0
INSERT
  8
ARML
 62
    52
 66
     1
  2
ELLIPS_1
 10
3.358353
 20
-7.353767
 30
0.417447
 41
0.3
 42
0.3
 50
294.545455
 43
0.2
  0
ATTRIB
  8
0
 62
     0
 10
3.358353
 20
-7.353767
 30
0.417447
 40
0.08
  1
intersection
  2
TYPE
 70
     1
 50
294.545455
  0
ATTRIB
  8
0
 62
     0
 10
3.237068
 20
-7.409155
 30
0.417447
 40
0.08
  1
Ellipsoid_1
  2
NAME
 70
     1
 50
294.545455
  0
SEQEND
  8
ARML
 62
    52
  0
INSERT
  8
ARML
 62
    52
 66
     1
  2
ELLIPS_1
 10
-3.358353
 20
-7.353767
 30
-0.919903
 41
0.35
 42
0.35
 50
245.454545
 43
0.35
210
0.0
220
0.0
230
-1.0
  0
ATTRIB
  8
0
 62
     0
 10
-3.358353
 20
-7.353767
 30
-0.919903
 40
0.07
  1
intersection
  2
TYPE
 70
     1
 50
245.454545
210
0.0
220
0.0
230
-1.0
  0
ATTRIB
  8
0
 62
     0
 10
-3.464476
 20
-7.305302
 30
-0.919903
 40
0.07
  1
Ellipsoid_1
  2
NAME
 70
     1
 50
245.454545
210
0.0
220
0.0
230
-1.0
  0
SEQEND
  8
ARML
 62
    52
  0
INSERT
  8
ARML
 62
     7
 66
     1
  2
DISK_Z
 10
3.358353
 20
-7.353767
 30
1.431276
 41
0.15
 42
0.15
 50
294.545455
 43
0.7
  0
ATTRIB
  8
0
 62
     0
 10
3.358353
 20
-7.353767
 30
1.431276
 40
0.015
  1
Disk_Z
  2
NAME
 70
     1
 50
294.545455
  0
ATTRIB
  8
0
 62
     0
 10
3.335612
 20
-7.364152
 30
1.431276
 40
0.015
  1
intersection
  2
TYPE
 70
     1
 50
294.545455
  0
SEQEND
  8
ARML
 62
     7
  0
INSERT
  8
ARML
 62
    40
 66
     1
  2
ELLIPS
 10
-8.084332
 20
2.458227
 30
0.0
 41
0.15
 42
0.3
 43
0.15
210
0.9096319953545184
220
0.4154150130018862
230
0.0
  0
ATTRIB
  8
0
 62
     0
 10
-8.084332
 20
2.458227
 30
0.0
 40
0.06
  1
quadric
  2
TYPE
 70
     1
210
0.9096319953545184
220
0.4154150130018862
230
0.0
  0
ATTRIB
  8
0
 62
     0
 10
-8.084332
 20
2.358227
 30
0.0
 40
0.06
  1
Ellipsoid
  2
NAME
 70
     1
210
0.9096319953545184
220
0.4154150130018862
230
0.0
  0
SEQEND
  8
ARML
  0
INSERT
  8
ARML
 62
    52
  2
ELBOW1
 10
0.610392
 20
0.431609
 30
0.0
 41
1.245819
 42
1.245819
 43
1.245819
210
-0.540640817455598
220
-0.8412535328311809
230
0.0
  0
INSERT
  8
ARML
 62
    52
  2
ELBOW1
 10
3.10203
 20
0.431609
 30
0.0
 41
-1.245819
 42
1.245819
 43
1.245819
210
-0.540640817455598
220
-0.8412535328311809
230
0.0
  0
INSERT
  8
ARML
 62
    52
  2
ELBOW05
 10
3.10203
 20
0.431609
 30
0.0
 41
-2.491638
 42
2.491638
 50
180.0
 43
2.491638
210
-0.540640817455598
220
-0.8412535328311809
230
0.0
  0
INSERT
  8
ARML
 62
    52
  2
ELBOW05
 10
8.085307
 20
0.431609
 30
0.0
 41
2.491638
 42
2.491638
 50
180.0
 43
2.491638
210
-0.540640817455598
220
-0.8412535328311809
230
0.0
  0
INSERT
  8
ARML
 62
    52
 66
     1
  2
ELLIPS_1
 10
6.800973
 20
-4.37072
 30
0.417447
 41
0.3
 42
0.3
 50
327.272727
 43
0.2
  0
ATTRIB
  8
0
 62
     0
 10
6.800973
 20
-4.37072
 30
0.417447
 40
0.08
  1
intersection
  2
TYPE
 70
     1
 50
327.272727
  0
ATTRIB
  8
0
 62
     0
 10
6.728887
 20
-4.482887
 30
0.417447
 40
0.08
  1
Ellipsoid_1
  2
NAME
 70
     1
 50
327.272727
  0
SEQEND
  8
ARML
 62
    52
  0
INSERT
  8
ARML
 62
    52
 66
     1
  2
ELLIPS_1
 10
-6.800973
 20
-4.37072
 30
-0.919903
 41
0.35
 42
0.35
 50
212.727273
 43
0.35
210
0.0
220
0.0
230
-1.0
  0
ATTRIB
  8
0
 62
     0
 10
-6.800973
 20
-4.37072
 30
-0.919903
 40
0.07
  1
intersection
  2
TYPE
 70
     1
 50
212.727273
210
0.0
220
0.0
230
-1.0
  0
ATTRIB
  8
0
 62
     0
 10
-6.864047
 20
-4.272573
 30
-0.919903
 40
0.07
  1
Ellipsoid_1
  2
NAME
 70
     1
 50
212.727273
210
0.0
220
0.0
230
-1.0
  0
SEQEND
  8
ARML
 62
    52
  0
INSERT
  8
ARML
 62
     7
 66
     1
  2
DISK_Z
 10
6.800973
 20
-4.37072
 30
1.431276
 41
0.15
 42
0.15
 50
327.272727
 43
0.7
  0
ATTRIB
  8
0
 62
     0
 10
6.800973
 20
-4.37072
 30
1.431276
 40
0.015
  1
Disk_Z
  2
NAME
 70
     1
 50
327.272727
  0
ATTRIB
  8
0
 62
     0
 10
6.787457
 20
-4.391751
 30
1.431276
 40
0.015
  1
intersection
  2
TYPE
 70
     1
 50
327.272727
  0
SEQEND
  8
ARML
 62
     7
  0
INSERT
  8
ARML
 62
    40
 66
     1
  2
ELLIPS
 10
-8.084332
 20
2.458227
 30
0.0
 41
0.15
 42
0.3
 43
0.15
210
0.540640817455598
220
0.8412535328311809
230
0.0
  0
ATTRIB
  8
0
 62
     0
 10
-8.084332
 20
2.458227
 30
0.0
 40
0.06
  1
quadric
  2
TYPE
 70
     1
210
0.540640817455598
220
0.8412535328311809
230
0.0
  0
ATTRIB
  8
0
 62
     0
 10
-8.084332
 20
2.358227
 30
0.0
 40
0.06
  1
Ellipsoid
  2
NAME
 70
     1
210
0.540640817455598
220
0.8412535328311809
230
0.0
  0
SEQEND
  8
ARML
  0
INSERT
  8
ARML
 62
    52
  2
ELBOW1
 10
2.258188
 20
3.427554
 30
0.0
 41
-0.934364
 42
0.934364
 43
0.934364
210
0.0
220
-1.0
230
0.0
  0
INSERT
  8
ARML
 62
    52
  2
ELBOW05
 10
2.258188
 20
3.427554
 30
0.0
 41
-1.868729
 42
1.868729
 50
180.0
 43
1.868729
210
0.0
220
-1.0
230
0.0
  0
INSERT
  8
ARML
 62
    52
  2
ELBOW05
 10
5.995645
 20
3.427554
 30
0.0
 41
1.868729
 42
1.868729
 50
180.0
 43
1.868729
210
0.0
220
-1.0
230
0.0
  0
INSERT
  8
ARML
 62
    52
  2
ELBOW1
 10
0.389459
 20
3.427554
 30
0.0
 41
0.934364
 42
0.934364
 43
0.934364
210
0.0
220
-1.0
230
0.0
  0
INSERT
  8
ARML
 62
     7
 66
     1
  2
DISK_Z
 10
5.994914
 20
0.0
 30
4.177304
 41
0.1125
 42
0.1125
 43
0.525
  0
ATTRIB
  8
0
 62
     0
 10
5.994914
 20
0.0
 30
4.177304
 40
0.01125
  1
Disk_Z
  2
NAME
 70
     1
  0
ATTRIB
  8
0
 62
     0
 10
5.994914
 20
-0.01875
 30
4.177304
 40
0.01125
  1
intersection
  2
TYPE
 70
     1
  0
SEQEND
  8
ARML
 62
     7
  0
INSERT
  8
ARML
 62
    52
 66
     1
  2
ELLIPS_1
 10
-5.994914
 20
0.0
 30
-3.793775
 41
0.2625
 42
0.2625
 50
180.0
 43
0.2625
210
0.0
220
0.0
230
-1.0
  0
ATTRIB
  8
0
 62
     0
 10
-5.994914
 20
0.0
 30
-3.793775
 40
0.0525
  1
intersection
  2
TYPE
 70
     1
 50
180.0
210
0.0
220
0.0
230
-1.0
  0
ATTRIB
  8
0
 62
     0
 10
-5.994914
 20
0.0875
 30
-3.793775
 40
0.0525
  1
Ellipsoid_1
  2
NAME
 70
     1
 50
180.0
210
0.0
220
0.0
230
-1.0
  0
SEQEND
  8
ARML
 62
    52
  0
INSERT
  8
ARML
 62
    52
 66
     1
  2
ELLIPS_1
 10
5.994914
 20
0.0
 30
3.416933
 41
0.225
 42
0.225
 43
0.15
  0
ATTRIB
  8
0
 62
     0
 10
5.994914
 20
0.0
 30
3.416933
 40
0.06
  1
intersection
  2
TYPE
 70
     1
  0
ATTRIB
  8
0
 62
     0
 10
5.994914
 20
-0.1
 30
3.416933
 40
0.06
  1
Ellipsoid_1
  2
NAME
 70
     1
  0
SEQEND
  8
ARML
 62
    52
  0
INSERT
  8
ARML
 62
    40
 66
     1
  2
ELLIPS
 10
-5.994914
 20
4.947517
 30
0.0
 41
0.1125
 42
0.225
 43
0.1125
210
0.0
220
1.0
230
0.0
  0
ATTRIB
  8
0
 62
     0
 10
-5.994914
 20
4.947517
 30
0.0
 40
0.045
  1
quadric
  2
TYPE
 70
     1
210
0.0
220
1.0
230
0.0
  0
ATTRIB
  8
0
 62
     0
 10
-5.994914
 20
4.872517
 30
0.0
 40
0.045
  1
Ellipsoid
  2
NAME
 70
     1
210
0.0
220
1.0
230
0.0
  0
SEQEND
  8
ARML
  0
INSERT
  8
ARML
 62
    52
  2
ELBOW1
 10
0.389459
 20
3.427554
 30
0.0
 41
0.934364
 42
0.934364
 43
0.934364
210
0.5406408174555976
220
-0.8412535328311812
230
0.0
  0
INSERT
  8
ARML
 62
    52
  2
ELBOW1
 10
2.258188
 20
3.427554
 30
0.0
 41
-0.934364
 42
0.934364
 43
0.934364
210
0.5406408174555976
220
-0.8412535328311812
230
0.0
  0
INSERT
  8
ARML
 62
    52
  2
ELBOW05
 10
2.258188
 20
3.427554
 30
0.0
 41
-1.868729
 42
1.868729
 50
180.0
 43
1.868729
210
0.5406408174555976
220
-0.8412535328311812
230
0.0
  0
INSERT
  8
ARML
 62
    52
  2
ELBOW05
 10
5.995645
 20
3.427554
 30
0.0
 41
1.868729
 42
1.868729
 50
180.0
 43
1.868729
210
0.5406408174555976
220
-0.8412535328311812
230
0.0
  0
INSERT
  8
ARML
 62
     7
 66
     1
  2
DISK_Z
 10
5.043243
 20
3.241095
 30
4.177304
 41
0.1125
 42
0.1125
 50
32.727273
 43
0.525
  0
ATTRIB
  8
0
 62
     0
 10
5.043243
 20
3.241095
 30
4.177304
 40
0.01125
  1
Disk_Z
  2
NAME
 70
     1
 50
32.727273
  0
ATTRIB
  8
0
 62
     0
 10
5.05338
 20
3.225322
 30
4.177304
 40
0.01125
  1
intersection
  2
TYPE
 70
     1
 50
32.727273
  0
SEQEND
  8
ARML
 62
     7
  0
INSERT
  8
ARML
 62
    52
 66
     1
  2
ELLIPS_1
 10
5.043243
 20
3.241095
 30
3.416933
 41
0.225
 42
0.225
 50
32.727273
 43
0.15
  0
ATTRIB
  8
0
 62
     0
 10
5.043243
 20
3.241095
 30
3.416933
 40
0.06
  1
intersection
  2
TYPE
 70
     1
 50
32.727273
  0
ATTRIB
  8
0
 62
     0
 10
5.097307
 20
3.15697
 30
3.416933
 40
0.06
  1
Ellipsoid_1
  2
NAME
 70
     1
 50
32.727273
  0
SEQEND
  8
ARML
 62
    52
  0
INSERT
  8
ARML
 62
    52
 66
     1
  2
ELLIPS_1
 10
-5.043243
 20
3.241095
 30
-3.793775
 41
0.2625
 42
0.2625
 50
147.272727
 43
0.2625
210
0.0
220
0.0
230
-1.0
  0
ATTRIB
  8
0
 62
     0
 10
-5.043243
 20
3.241095
 30
-3.793775
 40
0.0525
  1
intersection
  2
TYPE
 70
     1
 50
147.272727
210
0.0
220
0.0
230
-1.0
  0
ATTRIB
  8
0
 62
     0
 10
-4.995937
 20
3.314705
 30
-3.793775
 40
0.0525
  1
Ellipsoid_1
  2
NAME
 70
     1
 50
147.272727
210
0.0
220
0.0
230
-1.0
  0
SEQEND
  8
ARML
 62
    52
  0
INSERT
  8
ARML
 62
    40
 66
     1
  2
ELLIPS
 10
-5.994914
 20
4.947517
 30
0.0
 41
0.1125
 42
0.225
 43
0.1125
210
-0.5406408174555976
220
0.8412535328311812
230
0.0
  0
ATTRIB
  8
0
 62
     0
 10
-5.994914
 20
4.947517
 30
0.0
 40
0.045
  1
quadric
  2
TYPE
 70
     1
210
-0.5406408174555976
220
0.8412535328311812
230
0.0
  0
ATTRIB
  8
0
 62
     0
 10
-5.994914
 20
4.872517
 30
0.0
 40
0.045
  1
Ellipsoid
  2
NAME
 70
     1
210
-0.5406408174555976
220
0.8412535328311812
230
0.0
  0
SEQEND
  8
ARML
  0
INSERT
  8
ARML
 62
    52
  2
ELBOW1
 10
0.389459
 20
3.427554
 30
0.0
 41
0.934364
 42
0.934364
 43
0.934364
210
0.9096319953545184
220
-0.4154150130018862
230
0.0
  0
INSERT
  8
ARML
 62
    52
  2
ELBOW1
 10
2.258188
 20
3.427554
 30
0.0
 41
-0.934364
 42
0.934364
 43
0.934364
210
0.9096319953545184
220
-0.4154150130018862
230
0.0
  0
INSERT
  8
ARML
 62
    52
  2
ELBOW05
 10
2.258188
 20
3.427554
 30
0.0
 41
-1.868729
 42
1.868729
 50
180.0
 43
1.868729
210
0.9096319953545184
220
-0.4154150130018862
230
0.0
  0
INSERT
  8
ARML
 62
    52
  2
ELBOW05
 10
5.995645
 20
3.427554
 30
0.0
 41
1.868729
 42
1.868729
 50
180.0
 43
1.868729
210
0.9096319953545184
220
-0.4154150130018862
230
0.0
  0
INSERT
  8
ARML
 62
     7
 66
     1
  2
DISK_Z
 10
2.490377
 20
5.453166
 30
4.177304
 41
0.1125
 42
0.1125
 50
65.454545
 43
0.525
  0
ATTRIB
  8
0
 62
     0
 10
2.490377
 20
5.453166
 30
4.177304
 40
0.01125
  1
Disk_Z
  2
NAME
 70
     1
 50
65.454545
  0
ATTRIB
  8
0
 62
     0
 10
2.507433
 20
5.445377
 30
4.177304
 40
0.01125
  1
intersection
  2
TYPE
 70
     1
 50
65.454545
  0
SEQEND
  8
ARML
 62
     7
  0
INSERT
  8
ARML
 62
    52
 66
     1
  2
ELLIPS_1
 10
2.490377
 20
5.453166
 30
3.416933
 41
0.225
 42
0.225
 50
65.454545
 43
0.15
  0
ATTRIB
  8
0
 62
     0
 10
2.490377
 20
5.453166
 30
3.416933
 40
0.06
  1
intersection
  2
TYPE
 70
     1
 50
65.454545
  0
ATTRIB
  8
0
 62
     0
 10
2.58134
 20
5.411624
 30
3.416933
 40
0.06
  1
Ellipsoid_1
  2
NAME
 70
     1
 50
65.454545
  0
SEQEND
  8
ARML
 62
    52
  0
INSERT
  8
ARML
 62
    52
 66
     1
  2
ELLIPS_1
 10
-2.490377
 20
5.453166
 30
-3.793775
 41
0.2625
 42
0.2625
 50
114.545455
 43
0.2625
210
0.0
220
0.0
230
-1.0
  0
ATTRIB
  8
0
 62
     0
 10
-2.490377
 20
5.453166
 30
-3.793775
 40
0.0525
  1
intersection
  2
TYPE
 70
     1
 50
114.545455
210
0.0
220
0.0
230
-1.0
  0
ATTRIB
  8
0
 62
     0
 10
-2.410785
 20
5.489514
 30
-3.793775
 40
0.0525
  1
Ellipsoid_1
  2
NAME
 70
     1
 50
114.545455
210
0.0
220
0.0
230
-1.0
  0
SEQEND
  8
ARML
 62
    52
  0
INSERT
  8
ARML
 62
    40
 66
     1
  2
ELLIPS
 10
-5.994914
 20
4.947517
 30
0.0
 41
0.1125
 42
0.225
 43
0.1125
210
-0.9096319953545184
220
0.4154150130018862
230
0.0
  0
ATTRIB
  8
0
 62
     0
 10
-5.994914
 20
4.947517
 30
0.0
 40
0.045
  1
quadric
  2
TYPE
 70
     1
210
-0.9096319953545184
220
0.4154150130018862
230
0.0
  0
ATTRIB
  8
0
 62
     0
 10
-5.994914
 20
4.872517
 30
0.0
 40
0.045
  1
Ellipsoid
  2
NAME
 70
     1
210
-0.9096319953545184
220
0.4154150130018862
230
0.0
  0
SEQEND
  8
ARML
  0
INSERT
  8
ARML
 62
    52
  2
ELBOW1
 10
0.389459
 20
3.427554
 30
0.0
 41
0.934364
 42
0.934364
 43
0.934364
210
0.9898214418809328
220
0.1423148382732851
230
0.0
  0
INSERT
  8
ARML
 62
    52
  2
ELBOW1
 10
2.258188
 20
3.427554
 30
0.0
 41
-0.934364
 42
0.934364
 43
0.934364
210
0.9898214418809328
220
0.1423148382732851
230
0.0
  0
INSERT
  8
ARML
 62
    52
  2
ELBOW05
 10
2.258188
 20
3.427554
 30
0.0
 41
-1.868729
 42
1.868729
 50
180.0
 43
1.868729
210
0.9898214418809328
220
0.1423148382732851
230
0.0
  0
INSERT
  8
ARML
 62
    52
  2
ELBOW05
 10
5.995645
 20
3.427554
 30
0.0
 41
1.868729
 42
1.868729
 50
180.0
 43
1.868729
210
0.9898214418809328
220
0.1423148382732851
230
0.0
  0
INSERT
  8
ARML
 62
     7
 66
     1
  2
DISK_Z
 10
-0.853165
 20
5.933894
 30
4.177304
 41
0.1125
 42
0.1125
 50
98.181818
 43
0.525
  0
ATTRIB
  8
0
 62
     0
 10
-0.853165
 20
5.933894
 30
4.177304
 40
0.01125
  1
Disk_Z
  2
NAME
 70
     1
 50
98.181818
  0
ATTRIB
  8
0
 62
     0
 10
-0.834606
 20
5.936563
 30
4.177304
 40
0.01125
  1
intersection
  2
TYPE
 70
     1
 50
98.181818
  0
SEQEND
  8
ARML
 62
     7
  0
INSERT
  8
ARML
 62
    52
 66
     1
  2
ELLIPS_1
 10
-0.853165
 20
5.933894
 30
3.416933
 41
0.225
 42
0.225
 50
98.181818
 43
0.15
  0
ATTRIB
  8
0
 62
     0
 10
-0.853165
 20
5.933894
 30
3.416933
 40
0.06
  1
intersection
  2
TYPE
 70
     1
 50
98.181818
  0
ATTRIB
  8
0
 62
     0
 10
-0.754183
 20
5.948126
 30
3.416933
 40
0.06
  1
Ellipsoid_1
  2
NAME
 70
     1
 50
98.181818
  0
SEQEND
  8
ARML
 62
    52
  0
INSERT
  8
ARML
 62
    52
 66
     1
  2
ELLIPS_1
 10
0.853165
 20
5.933894
 30
-3.793775
 41
0.2625
 42
0.2625
 50
81.818182
 43
0.2625
210
0.0
220
0.0
230
-1.0
  0
ATTRIB
  8
0
 62
     0
 10
0.853165
 20
5.933894
 30
-3.793775
 40
0.0525
  1
intersection
  2
TYPE
 70
     1
 50
81.818182
210
0.0
220
0.0
230
-1.0
  0
ATTRIB
  8
0
 62
     0
 10
0.939775
 20
5.921442
 30
-3.793775
 40
0.0525
  1
Ellipsoid_1
  2
NAME
 70
     1
 50
81.818182
210
0.0
220
0.0
230
-1.0
  0
SEQEND
  8
ARML
 62
    52
  0
INSERT
  8
ARML
 62
    40
 66
     1
  2
ELLIPS
 10
-5.994914
 20
4.947517
 30
0.0
 41
0.1125
 42
0.225
 43
0.1125
210
-0.9898214418809328
220
-0.1423148382732851
230
0.0
  0
ATTRIB
  8
0
 62
     0
 10
-5.994914
 20
4.947517
 30
0.0
 40
0.045
  1
quadric
  2
TYPE
 70
     1
210
-0.9898214418809328
220
-0.1423148382732851
230
0.0
  0
ATTRIB
  8
0
 62
     0
 10
-5.994914
 20
4.872517
 30
0.0
 40
0.045
  1
Ellipsoid
  2
NAME
 70
     1
210
-0.9898214418809328
220
-0.1423148382732851
230
0.0
  0
SEQEND
  8
ARML
  0
INSERT
  8
0
 62
    52
  2
ELBOW1
 10
0.389459
 20
3.427554
 30
0.0
 41
0.934364
 42
0.934364
 43
0.934364
210
0.7557495743542583
220
0.6548607339452851
230
0.0
  0
INSERT
  8
ARML
 62
    52
  2
ELBOW1
 10
2.258188
 20
3.427554
 30
0.0
 41
-0.934364
 42
0.934364
 43
0.934364
210
0.7557495743542583
220
0.6548607339452851
230
0.0
  0
INSERT
  8
ARML
 62
    52
  2
ELBOW05
 10
2.258188
 20
3.427554
 30
0.0
 41
-1.868729
 42
1.868729
 50
180.0
 43
1.868729
210
0.7557495743542583
220
0.6548607339452851
230
0.0
  0
INSERT
  8
ARML
 62
    52
  2
ELBOW05
 10
5.995645
 20
3.427554
 30
0.0
 41
1.868729
 42
1.868729
 50
180.0
 43
1.868729
210
0.7557495743542583
220
0.6548607339452851
230
0.0
  0
INSERT
  8
ARML
 62
     7
 66
     1
  2
DISK_Z
 10
-3.925834
 20
4.530654
 30
4.177304
 41
0.1125
 42
0.1125
 50
130.909091
 43
0.525
  0
ATTRIB
  8
0
 62
     0
 10
-3.925834
 20
4.530654
 30
4.177304
 40
0.01125
  1
Disk_Z
  2
NAME
 70
     1
 50
130.909091
  0
ATTRIB
  8
0
 62
     0
 10
-3.911664
 20
4.542932
 30
4.177304
 40
0.01125
  1
intersection
  2
TYPE
 70
     1
 50
130.909091
  0
SEQEND
  8
ARML
 62
     7
  0
INSERT
  8
ARML
 62
    52
 66
     1
  2
ELLIPS_1
 10
-3.925834
 20
4.530654
 30
3.416933
 41
0.225
 42
0.225
 50
130.909091
 43
0.15
  0
ATTRIB
  8
0
 62
     0
 10
-3.925834
 20
4.530654
 30
3.416933
 40
0.06
  1
intersection
  2
TYPE
 70
     1
 50
130.909091
  0
ATTRIB
  8
0
 62
     0
 10
-3.850259
 20
4.59614
 30
3.416933
 40
0.06
  1
Ellipsoid_1
  2
NAME
 70
     1
 50
130.909091
  0
SEQEND
  8
ARML
 62
    52
  0
INSERT
  8
ARML
 62
    52
 66
     1
  2
ELLIPS_1
 10
3.925834
 20
4.530654
 30
-3.793775
 41
0.2625
 42
0.2625
 50
49.090909
 43
0.2625
210
0.0
220
0.0
230
-1.0
  0
ATTRIB
  8
0
 62
     0
 10
3.925834
 20
4.530654
 30
-3.793775
 40
0.0525
  1
intersection
  2
TYPE
 70
     1
 50
49.090909
210
0.0
220
0.0
230
-1.0
  0
ATTRIB
  8
0
 62
     0
 10
3.991962
 20
4.473353
 30
-3.793775
 40
0.0525
  1
Ellipsoid_1
  2
NAME
 70
     1
 50
49.090909
210
0.0
220
0.0
230
-1.0
  0
SEQEND
  8
ARML
 62
    52
  0
INSERT
  8
ARML
 62
    40
 66
     1
  2
ELLIPS
 10
-5.994914
 20
4.947517
 30
0.0
 41
0.1125
 42
0.225
 43
0.1125
210
-0.7557495743542583
220
-0.6548607339452851
230
0.0
  0
ATTRIB
  8
0
 62
     0
 10
-5.994914
 20
4.947517
 30
0.0
 40
0.045
  1
quadric
  2
TYPE
 70
     1
210
-0.7557495743542583
220
-0.6548607339452851
230
0.0
  0
ATTRIB
  8
0
 62
     0
 10
-5.994914
 20
4.872517
 30
0.0
 40
0.045
  1
Ellipsoid
  2
NAME
 70
     1
210
-0.7557495743542583
220
-0.6548607339452851
230
0.0
  0
SEQEND
  8
ARML
  0
INSERT
  8
ARML
 62
    52
  2
ELBOW1
 10
0.389459
 20
3.427554
 30
0.0
 41
0.934364
 42
0.934364
 43
0.934364
210
0.2817325568414295
220
0.9594929736144975
230
0.0
  0
INSERT
  8
ARML
 62
    52
  2
ELBOW1
 10
2.258188
 20
3.427554
 30
0.0
 41
-0.934364
 42
0.934364
 43
0.934364
210
0.2817325568414295
220
0.9594929736144975
230
0.0
  0
INSERT
  8
ARML
 62
    52
  2
ELBOW05
 10
2.258188
 20
3.427554
 30
0.0
 41
-1.868729
 42
1.868729
 50
180.0
 43
1.868729
210
0.2817325568414295
220
0.9594929736144975
230
0.0
  0
INSERT
  8
ARML
 62
    52
  2
ELBOW05
 10
5.995645
 20
3.427554
 30
0.0
 41
1.868729
 42
1.868729
 50
180.0
 43
1.868729
210
0.2817325568414295
220
0.9594929736144975
230
0.0
  0
INSERT
  8
ARML
 62
     7
 66
     1
  2
DISK_Z
 10
-5.752078
 20
1.688962
 30
4.177304
 41
0.1125
 42
0.1125
 50
163.636364
 43
0.525
  0
ATTRIB
  8
0
 62
     0
 10
-5.752078
 20
1.688962
 30
4.177304
 40
0.01125
  1
Disk_Z
  2
NAME
 70
     1
 50
163.636364
  0
ATTRIB
  8
0
 62
     0
 10
-5.746795
 20
1.706953
 30
4.177304
 40
0.01125
  1
intersection
  2
TYPE
 70
     1
 50
163.636364
  0
SEQEND
  8
ARML
 62
     7
  0
INSERT
  8
ARML
 62
    52
 66
     1
  2
ELLIPS_1
 10
-5.752078
 20
1.688962
 30
3.416933
 41
0.225
 42
0.225
 50
163.636364
 43
0.15
  0
ATTRIB
  8
0
 62
     0
 10
-5.752078
 20
1.688962
 30
3.416933
 40
0.06
  1
intersection
  2
TYPE
 70
     1
 50
163.636364
  0
ATTRIB
  8
0
 62
     0
 10
-5.723905
 20
1.784912
 30
3.416933
 40
0.06
  1
Ellipsoid_1
  2
NAME
 70
     1
 50
163.636364
  0
SEQEND
  8
ARML
 62
    52
  0
INSERT
  8
ARML
 62
    52
 66
     1
  2
ELLIPS_1
 10
5.752078
 20
1.688962
 30
-3.793775
 41
0.2625
 42
0.2625
 50
16.363636
 43
0.2625
210
0.0
220
0.0
230
-1.0
  0
ATTRIB
  8
0
 62
     0
 10
5.752078
 20
1.688962
 30
-3.793775
 40
0.0525
  1
intersection
  2
TYPE
 70
     1
 50
16.363636
210
0.0
220
0.0
230
-1.0
  0
ATTRIB
  8
0
 62
     0
 10
5.77673
 20
1.605007
 30
-3.793775
 40
0.0525
  1
Ellipsoid_1
  2
NAME
 70
     1
 50
16.363636
210
0.0
220
0.0
230
-1.0
  0
SEQEND
  8
ARML
 62
    52
  0
INSERT
  8
ARML
 62
    40
 66
     1
  2
ELLIPS
 10
-5.994914
 20
4.947517
 30
0.0
 41
0.1125
 42
0.225
 43
0.1125
210
-0.2817325568414295
220
-0.9594929736144975
230
0.0
  0
ATTRIB
  8
0
 62
     0
 10
-5.994914
 20
4.947517
 30
0.0
 40
0.045
  1
quadric
  2
TYPE
 70
     1
210
-0.2817325568414295
220
-0.9594929736144975
230
0.0
  0
ATTRIB
  8
0
 62
     0
 10
-5.994914
 20
4.872517
 30
0.0
 40
0.045
  1
Ellipsoid
  2
NAME
 70
     1
210
-0.2817325568414295
220
-0.9594929736144975
230
0.0
  0
SEQEND
  8
ARML
  0
INSERT
  8
ARML
 62
    52
  2
ELBOW1
 10
0.389459
 20
3.427554
 30
0.0
 41
0.934364
 42
0.934364
 43
0.934364
210
-0.2817325568414299
220
0.9594929736144975
230
0.0
  0
INSERT
  8
ARML
 62
    52
  2
ELBOW1
 10
2.258188
 20
3.427554
 30
0.0
 41
-0.934364
 42
0.934364
 43
0.934364
210
-0.2817325568414299
220
0.9594929736144975
230
0.0
  0
INSERT
  8
ARML
 62
    52
  2
ELBOW05
 10
2.258188
 20
3.427554
 30
0.0
 41
-1.868729
 42
1.868729
 50
180.0
 43
1.868729
210
-0.2817325568414299
220
0.9594929736144975
230
0.0
  0
INSERT
  8
ARML
 62
    52
  2
ELBOW05
 10
5.995645
 20
3.427554
 30
0.0
 41
1.868729
 42
1.868729
 50
180.0
 43
1.868729
210
-0.2817325568414299
220
0.9594929736144975
230
0.0
  0
INSERT
  8
ARML
 62
     7
 66
     1
  2
DISK_Z
 10
-5.752078
 20
-1.688962
 30
4.177304
 41
0.1125
 42
0.1125
 50
196.363636
 43
0.525
  0
ATTRIB
  8
0
 62
     0
 10
-5.752078
 20
-1.688962
 30
4.177304
 40
0.01125
  1
Disk_Z
  2
NAME
 70
     1
 50
196.363636
  0
ATTRIB
  8
0
 62
     0
 10
-5.75736
 20
-1.670972
 30
4.177304
 40
0.01125
  1
intersection
  2
TYPE
 70
     1
 50
196.363636
  0
SEQEND
  8
ARML
 62
     7
  0
INSERT
  8
ARML
 62
    52
 66
     1
  2
ELLIPS_1
 10
-5.752078
 20
-1.688962
 30
3.416933
 41
0.225
 42
0.225
 50
196.363636
 43
0.15
  0
ATTRIB
  8
0
 62
     0
 10
-5.752078
 20
-1.688962
 30
3.416933
 40
0.06
  1
intersection
  2
TYPE
 70
     1
 50
196.363636
  0
ATTRIB
  8
0
 62
     0
 10
-5.780251
 20
-1.593013
 30
3.416933
 40
0.06
  1
Ellipsoid_1
  2
NAME
 70
     1
 50
196.363636
  0
SEQEND
  8
ARML
 62
    52
  0
INSERT
  8
ARML
 62
    52
 66
     1
  2
ELLIPS_1
 10
5.752078
 20
-1.688962
 30
-3.793775
 41
0.2625
 42
0.2625
 50
343.636364
 43
0.2625
210
0.0
220
0.0
230
-1.0
  0
ATTRIB
  8
0
 62
     0
 10
5.752078
 20
-1.688962
 30
-3.793775
 40
0.0525
  1
intersection
  2
TYPE
 70
     1
 50
343.636364
210
0.0
220
0.0
230
-1.0
  0
ATTRIB
  8
0
 62
     0
 10
5.727426
 20
-1.772918
 30
-3.793775
 40
0.0525
  1
Ellipsoid_1
  2
NAME
 70
     1
 50
343.636364
210
0.0
220
0.0
230
-1.0
  0
SEQEND
  8
ARML
 62
    52
  0
INSERT
  8
ARML
 62
    40
 66
     1
  2
ELLIPS
 10
-5.994914
 20
4.947517
 30
0.0
 41
0.1125
 42
0.225
 43
0.1125
210
0.2817325568414299
220
-0.9594929736144975
230
0.0
  0
ATTRIB
  8
0
 62
     0
 10
-5.994914
 20
4.947517
 30
0.0
 40
0.045
  1
quadric
  2
TYPE
 70
     1
210
0.2817325568414299
220
-0.9594929736144975
230
0.0
  0
ATTRIB
  8
0
 62
     0
 10
-5.994914
 20
4.872517
 30
0.0
 40
0.045
  1
Ellipsoid
  2
NAME
 70
     1
210
0.2817325568414299
220
-0.9594929736144975
230
0.0
  0
SEQEND
  8
ARML
  0
INSERT
  8
0
 62
    52
  2
ELBOW1
 10
0.389459
 20
3.427554
 30
0.0
 41
0.934364
 42
0.934364
 43
0.934364
210
-0.7557495743542586
220
0.6548607339452848
230
0.0
  0
INSERT
  8
ARML
 62
    52
  2
ELBOW1
 10
2.258188
 20
3.427554
 30
0.0
 41
-0.934364
 42
0.934364
 43
0.934364
210
-0.7557495743542586
220
0.6548607339452848
230
0.0
  0
INSERT
  8
ARML
 62
    52
  2
ELBOW05
 10
2.258188
 20
3.427554
 30
0.0
 41
-1.868729
 42
1.868729
 50
180.0
 43
1.868729
210
-0.7557495743542586
220
0.6548607339452848
230
0.0
  0
INSERT
  8
ARML
 62
    52
  2
ELBOW05
 10
5.995645
 20
3.427554
 30
0.0
 41
1.868729
 42
1.868729
 50
180.0
 43
1.868729
210
-0.7557495743542586
220
0.6548607339452848
230
0.0
  0
INSERT
  8
ARML
 62
     7
 66
     1
  2
DISK_Z
 10
-3.925834
 20
-4.530654
 30
4.177304
 41
0.1125
 42
0.1125
 50
229.090909
 43
0.525
  0
ATTRIB
  8
0
 62
     0
 10
-3.925834
 20
-4.530654
 30
4.177304
 40
0.01125
  1
Disk_Z
  2
NAME
 70
     1
 50
229.090909
  0
ATTRIB
  8
0
 62
     0
 10
-3.940004
 20
-4.518375
 30
4.177304
 40
0.01125
  1
intersection
  2
TYPE
 70
     1
 50
229.090909
  0
SEQEND
  8
ARML
 62
     7
  0
INSERT
  8
ARML
 62
    52
 66
     1
  2
ELLIPS_1
 10
-3.925834
 20
-4.530654
 30
3.416933
 41
0.225
 42
0.225
 50
229.090909
 43
0.15
  0
ATTRIB
  8
0
 62
     0
 10
-3.925834
 20
-4.530654
 30
3.416933
 40
0.06
  1
intersection
  2
TYPE
 70
     1
 50
229.090909
  0
ATTRIB
  8
0
 62
     0
 10
-4.001409
 20
-4.465168
 30
3.416933
 40
0.06
  1
Ellipsoid_1
  2
NAME
 70
     1
 50
229.090909
  0
SEQEND
  8
ARML
 62
    52
  0
INSERT
  8
ARML
 62
    52
 66
     1
  2
ELLIPS_1
 10
3.925834
 20
-4.530654
 30
-3.793775
 41
0.2625
 42
0.2625
 50
310.909091
 43
0.2625
210
0.0
220
0.0
230
-1.0
  0
ATTRIB
  8
0
 62
     0
 10
3.925834
 20
-4.530654
 30
-3.793775
 40
0.0525
  1
intersection
  2
TYPE
 70
     1
 50
310.909091
210
0.0
220
0.0
230
-1.0
  0
ATTRIB
  8
0
 62
     0
 10
3.859706
 20
-4.587954
 30
-3.793775
 40
0.0525
  1
Ellipsoid_1
  2
NAME
 70
     1
 50
310.909091
210
0.0
220
0.0
230
-1.0
  0
SEQEND
  8
ARML
 62
    52
  0
INSERT
  8
ARML
 62
    40
 66
     1
  2
ELLIPS
 10
-5.994914
 20
4.947517
 30
0.0
 41
0.1125
 42
0.225
 43
0.1125
210
0.7557495743542586
220
-0.6548607339452848
230
0.0
  0
ATTRIB
  8
0
 62
     0
 10
-5.994914
 20
4.947517
 30
0.0
 40
0.045
  1
quadric
  2
TYPE
 70
     1
210
0.7557495743542586
220
-0.6548607339452848
230
0.0
  0
ATTRIB
  8
0
 62
     0
 10
-5.994914
 20
4.872517
 30
0.0
 40
0.045
  1
Ellipsoid
  2
NAME
 70
     1
210
0.7557495743542586
220
-0.6548607339452848
230
0.0
  0
SEQEND
  8
ARML
  0
INSERT
  8
ARML
 62
    52
  2
ELBOW1
 10
0.389459
 20
3.427554
 30
0.0
 41
0.934364
 42
0.934364
 43
0.934364
210
-0.9898214418809328
220
0.1423148382732851
230
0.0
  0
INSERT
  8
ARML
 62
    52
  2
ELBOW1
 10
2.258188
 20
3.427554
 30
0.0
 41
-0.934364
 42
0.934364
 43
0.934364
210
-0.9898214418809328
220
0.1423148382732851
230
0.0
  0
INSERT
  8
ARML
 62
    52
  2
ELBOW05
 10
2.258188
 20
3.427554
 30
0.0
 41
-1.868729
 42
1.868729
 50
180.0
 43
1.868729
210
-0.9898214418809328
220
0.1423148382732851
230
0.0
  0
INSERT
  8
ARML
 62
    52
  2
ELBOW05
 10
5.995645
 20
3.427554
 30
0.0
 41
1.868729
 42
1.868729
 50
180.0
 43
1.868729
210
-0.9898214418809328
220
0.1423148382732851
230
0.0
  0
INSERT
  8
ARML
 62
     7
 66
     1
  2
DISK_Z
 10
-0.853165
 20
-5.933894
 30
4.177304
 41
0.1125
 42
0.1125
 50
261.818182
 43
0.525
  0
ATTRIB
  8
0
 62
     0
 10
-0.853165
 20
-5.933894
 30
4.177304
 40
0.01125
  1
Disk_Z
  2
NAME
 70
     1
 50
261.818182
  0
ATTRIB
  8
0
 62
     0
 10
-0.871724
 20
-5.931226
 30
4.177304
 40
0.01125
  1
intersection
  2
TYPE
 70
     1
 50
261.818182
  0
SEQEND
  8
ARML
 62
     7
  0
INSERT
  8
ARML
 62
    52
 66
     1
  2
ELLIPS_1
 10
-0.853165
 20
-5.933894
 30
3.416933
 41
0.225
 42
0.225
 50
261.818182
 43
0.15
  0
ATTRIB
  8
0
 62
     0
 10
-0.853165
 20
-5.933894
 30
3.416933
 40
0.06
  1
intersection
  2
TYPE
 70
     1
 50
261.818182
  0
ATTRIB
  8
0
 62
     0
 10
-0.952147
 20
-5.919663
 30
3.416933
 40
0.06
  1
Ellipsoid_1
  2
NAME
 70
     1
 50
261.818182
  0
SEQEND
  8
ARML
 62
    52
  0
INSERT
  8
ARML
 62
    52
 66
     1
  2
ELLIPS_1
 10
0.853165
 20
-5.933894
 30
-3.793775
 41
0.2625
 42
0.2625
 50
278.181818
 43
0.2625
210
0.0
220
0.0
230
-1.0
  0
ATTRIB
  8
0
 62
     0
 10
0.853165
 20
-5.933894
 30
-3.793775
 40
0.0525
  1
intersection
  2
TYPE
 70
     1
 50
278.181818
210
0.0
220
0.0
230
-1.0
  0
ATTRIB
  8
0
 62
     0
 10
0.766556
 20
-5.946347
 30
-3.793775
 40
0.0525
  1
Ellipsoid_1
  2
NAME
 70
     1
 50
278.181818
210
0.0
220
0.0
230
-1.0
  0
SEQEND
  8
ARML
 62
    52
  0
INSERT
  8
ARML
 62
    40
 66
     1
  2
ELLIPS
 10
-5.994914
 20
4.947517
 30
0.0
 41
0.1125
 42
0.225
 43
0.1125
210
0.9898214418809328
220
-0.1423148382732851
230
0.0
  0
ATTRIB
  8
0
 62
     0
 10
-5.994914
 20
4.947517
 30
0.0
 40
0.045
  1
quadric
  2
TYPE
 70
     1
210
0.9898214418809328
220
-0.1423148382732851
230
0.0
  0
ATTRIB
  8
0
 62
     0
 10
-5.994914
 20
4.872517
 30
0.0
 40
0.045
  1
Ellipsoid
  2
NAME
 70
     1
210
0.9898214418809328
220
-0.1423148382732851
230
0.0
  0
SEQEND
  8
ARML
  0
INSERT
  8
ARML
 62
    52
  2
ELBOW1
 10
0.389459
 20
3.427554
 30
0.0
 41
0.934364
 42
0.934364
 43
0.934364
210
-0.9096319953545184
220
-0.4154150130018862
230
0.0
  0
INSERT
  8
ARML
 62
    52
  2
ELBOW1
 10
2.258188
 20
3.427554
 30
0.0
 41
-0.934364
 42
0.934364
 43
0.934364
210
-0.9096319953545184
220
-0.4154150130018862
230
0.0
  0
INSERT
  8
ARML
 62
    52
  2
ELBOW05
 10
2.258188
 20
3.427554
 30
0.0
 41
-1.868729
 42
1.868729
 50
180.0
 43
1.868729
210
-0.9096319953545184
220
-0.4154150130018862
230
0.0
  0
INSERT
  8
ARML
 62
    52
  2
ELBOW05
 10
5.995645
 20
3.427554
 30
0.0
 41
1.868729
 42
1.868729
 50
180.0
 43
1.868729
210
-0.9096319953545184
220
-0.4154150130018862
230
0.0
  0
INSERT
  8
ARML
 62
     7
 66
     1
  2
DISK_Z
 10
2.490377
 20
-5.453166
 30
4.177304
 41
0.1125
 42
0.1125
 50
294.545455
 43
0.525
  0
ATTRIB
  8
0
 62
     0
 10
2.490377
 20
-5.453166
 30
4.177304
 40
0.01125
  1
Disk_Z
  2
NAME
 70
     1
 50
294.545455
  0
ATTRIB
  8
0
 62
     0
 10
2.473322
 20
-5.460955
 30
4.177304
 40
0.01125
  1
intersection
  2
TYPE
 70
     1
 50
294.545455
  0
SEQEND
  8
ARML
 62
     7
  0
INSERT
  8
ARML
 62
    52
 66
     1
  2
ELLIPS_1
 10
2.490377
 20
-5.453166
 30
3.416933
 41
0.225
 42
0.225
 50
294.545455
 43
0.15
  0
ATTRIB
  8
0
 62
     0
 10
2.490377
 20
-5.453166
 30
3.416933
 40
0.06
  1
intersection
  2
TYPE
 70
     1
 50
294.545455
  0
ATTRIB
  8
0
 62
     0
 10
2.399414
 20
-5.494707
 30
3.416933
 40
0.06
  1
Ellipsoid_1
  2
NAME
 70
     1
 50
294.545455
  0
SEQEND
  8
ARML
 62
    52
  0
INSERT
  8
ARML
 62
    52
 66
     1
  2
ELLIPS_1
 10
-2.490377
 20
-5.453166
 30
-3.793775
 41
0.2625
 42
0.2625
 50
245.454545
 43
0.2625
210
0.0
220
0.0
230
-1.0
  0
ATTRIB
  8
0
 62
     0
 10
-2.490377
 20
-5.453166
 30
-3.793775
 40
0.0525
  1
intersection
  2
TYPE
 70
     1
 50
245.454545
210
0.0
220
0.0
230
-1.0
  0
ATTRIB
  8
0
 62
     0
 10
-2.56997
 20
-5.416817
 30
-3.793775
 40
0.0525
  1
Ellipsoid_1
  2
NAME
 70
     1
 50
245.454545
210
0.0
220
0.0
230
-1.0
  0
SEQEND
  8
ARML
 62
    52
  0
INSERT
  8
ARML
 62
    40
 66
     1
  2
ELLIPS
 10
-5.994914
 20
4.947517
 30
0.0
 41
0.1125
 42
0.225
 43
0.1125
210
0.9096319953545184
220
0.4154150130018862
230
0.0
  0
ATTRIB
  8
0
 62
     0
 10
-5.994914
 20
4.947517
 30
0.0
 40
0.045
  1
quadric
  2
TYPE
 70
     1
210
0.9096319953545184
220
0.4154150130018862
230
0.0
  0
ATTRIB
  8
0
 62
     0
 10
-5.994914
 20
4.872517
 30
0.0
 40
0.045
  1
Ellipsoid
  2
NAME
 70
     1
210
0.9096319953545184
220
0.4154150130018862
230
0.0
  0
SEQEND
  8
ARML
  0
INSERT
  8
ARML
 62
    52
  2
ELBOW1
 10
0.389459
 20
3.427554
 30
0.0
 41
0.934364
 42
0.934364
 43
0.934364
210
-0.540640817455598
220
-0.8412535328311809
230
0.0
  0
INSERT
  8
ARML
 62
    52
  2
ELBOW1
 10
2.258188
 20
3.427554
 30
0.0
 41
-0.934364
 42
0.934364
 43
0.934364
210
-0.540640817455598
220
-0.8412535328311809
230
0.0
  0
INSERT
  8
ARML
 62
    52
  2
ELBOW05
 10
2.258188
 20
3.427554
 30
0.0
 41
-1.868729
 42
1.868729
 50
180.0
 43
1.868729
210
-0.540640817455598
220
-0.8412535328311809
230
0.0
  0
INSERT
  8
ARML
 62
    52
  2
ELBOW05
 10
5.995645
 20
3.427554
 30
0.0
 41
1.868729
 42
1.868729
 50
180.0
 43
1.868729
210
-0.540640817455598
220
-0.8412535328311809
230
0.0
  0
INSERT
  8
ARML
 62
     7
 66
     1
  2
DISK_Z
 10
5.043243
 20
-3.241095
 30
4.177304
 41
0.1125
 42
0.1125
 50
327.272727
 43
0.525
  0
ATTRIB
  8
0
 62
     0
 10
5.043243
 20
-3.241095
 30
4.177304
 40
0.01125
  1
Disk_Z
  2
NAME
 70
     1
 50
327.272727
  0
ATTRIB
  8
0
 62
     0
 10
5.033106
 20
-3.256869
 30
4.177304
 40
0.01125
  1
intersection
  2
TYPE
 70
     1
 50
327.272727
  0
SEQEND
  8
ARML
 62
     7
  0
INSERT
  8
ARML
 62
    52
 66
     1
  2
ELLIPS_1
 10
5.043243
 20
-3.241095
 30
3.416933
 41
0.225
 42
0.225
 50
327.272727
 43
0.15
  0
ATTRIB
  8
0
 62
     0
 10
5.043243
 20
-3.241095
 30
3.416933
 40
0.06
  1
intersection
  2
TYPE
 70
     1
 50
327.272727
  0
ATTRIB
  8
0
 62
     0
 10
4.989179
 20
-3.325221
 30
3.416933
 40
0.06
  1
Ellipsoid_1
  2
NAME
 70
     1
 50
327.272727
  0
SEQEND
  8
ARML
 62
    52
  0
INSERT
  8
ARML
 62
    52
 66
     1
  2
ELLIPS_1
 10
-5.043243
 20
-3.241095
 30
-3.793775
 41
0.2625
 42
0.2625
 50
212.727273
 43
0.2625
210
0.0
220
0.0
230
-1.0
  0
ATTRIB
  8
0
 62
     0
 10
-5.043243
 20
-3.241095
 30
-3.793775
 40
0.0525
  1
intersection
  2
TYPE
 70
     1
 50
212.727273
210
0.0
220
0.0
230
-1.0
  0
ATTRIB
  8
0
 62
     0
 10
-5.090549
 20
-3.167486
 30
-3.793775
 40
0.0525
  1
Ellipsoid_1
  2
NAME
 70
     1
 50
212.727273
210
0.0
220
0.0
230
-1.0
  0
SEQEND
  8
ARML
 62
    52
  0
INSERT
  8
ARML
 62
    40
 66
     1
  2
ELLIPS
 10
-5.994914
 20
4.947517
 30
0.0
 41
0.1125
 42
0.225
 43
0.1125
210
0.540640817455598
220
0.8412535328311809
230
0.0
  0
ATTRIB
  8
0
 62
     0
 10
-5.994914
 20
4.947517
 30
0.0
 40
0.045
  1
quadric
  2
TYPE
 70
     1
210
0.540640817455598
220
0.8412535328311809
230
0.0
  0
ATTRIB
  8
0
 62
     0
 10
-5.994914
 20
4.872517
 30
0.0
 40
0.045
  1
Ellipsoid
  2
NAME
 70
     1
210
0.540640817455598
220
0.8412535328311809
230
0.0
  0
SEQEND
  8
ARML
  0
INSERT
  8
0
 62
    52
  2
DISK_Y
 10
0.0
 20
6.681099
 30
0.0
 41
0.1
 42
3.0
 43
0.1
210
0.0
220
-1.0
230
0.0
  0
INSERT
  8
0
 62
    52
  2
ELLIPS
 10
0.0
 20
9.670832
 30
0.0
 42
0.4
210
0.0
220
-1.0
230
0.0
  0
INSERT
  8
CEIL
  2
CUBE
 10
0.0
 20
9.854816
 30
0.0
 41
50.0
 42
0.2
 43
50.0
210
0.0
220
-1.0
230
0.0
  0
INSERT
  8
RAFTY
  2
CUBE
 10
-4.989024
 20
9.854816
 30
0.0
 41
0.6
 42
0.8
 43
50.0
210
0.0
220
-1.0
230
0.0
  0
INSERT
  8
RAFTX
  2
CUBE
 10
0.0
 20
9.854816
 30
-5.0
 41
50.0
 42
0.8
 43
0.6
210
0.0
220
-1.0
230
0.0
  0
INSERT
  8
RAFTY
  2
CUBE
 10
5.010976
 20
9.854816
 30
0.0
 41
0.6
 42
0.8
 43
50.0
210
0.0
220
-1.0
230
0.0
  0
INSERT
  8
RAFTY
  2
CUBE
 10
15.010976
 20
9.854816
 30
0.0
 41
0.6
 42
0.8
 43
50.0
210
0.0
220
-1.0
230
0.0
  0
INSERT
  8
RAFTY
  2
CUBE
 10
25.010976
 20
9.854816
 30
0.0
 41
0.6
 42
0.8
 43
50.0
210
0.0
220
-1.0
230
0.0
  0
INSERT
  8
RAFTY
  2
CUBE
 10
35.010976
 20
9.854816
 30
0.0
 41
0.6
 42
0.8
 43
50.0
210
0.0
220
-1.0
230
0.0
  0
INSERT
  8
RAFTY
  2
CUBE
 10
-14.989024
 20
9.854816
 30
0.0
 41
0.6
 42
0.8
 43
50.0
210
0.0
220
-1.0
230
0.0
  0
INSERT
  8
RAFTY
  2
CUBE
 10
-24.989024
 20
9.854816
 30
0.0
 41
0.6
 42
0.8
 43
50.0
210
0.0
220
-1.0
230
0.0
  0
INSERT
  8
RAFTY
  2
CUBE
 10
-34.989024
 20
9.854816
 30
0.0
 41
0.6
 42
0.8
 43
50.0
210
0.0
220
-1.0
230
0.0
  0
INSERT
  8
RAFTY
  2
CUBE
 10
-44.989024
 20
9.854816
 30
0.0
 41
0.6
 42
0.8
 43
50.0
210
0.0
220
-1.0
230
0.0
  0
INSERT
  8
RAFTX
  2
CUBE
 10
0.0
 20
9.854816
 30
-15.0
 41
50.0
 42
0.8
 43
0.6
210
0.0
220
-1.0
230
0.0
  0
INSERT
  8
RAFTX
  2
CUBE
 10
0.0
 20
9.854816
 30
-25.0
 41
50.0
 42
0.8
 43
0.6
210
0.0
220
-1.0
230
0.0
  0
INSERT
  8
RAFTX
  2
CUBE
 10
0.0
 20
9.854816
 30
-35.0
 41
50.0
 42
0.8
 43
0.6
210
0.0
220
-1.0
230
0.0
  0
INSERT
  8
RAFTX
  2
CUBE
 10
0.0
 20
9.854816
 30
5.0
 41
50.0
 42
0.8
 43
0.6
210
0.0
220
-1.0
230
0.0
  0
INSERT
  8
RAFTX
  2
CUBE
 10
0.0
 20
9.854816
 30
15.0
 41
50.0
 42
0.8
 43
0.6
210
0.0
220
-1.0
230
0.0
  0
INSERT
  8
RAFTX
  2
CUBE
 10
0.0
 20
9.854816
 30
25.0
 41
50.0
 42
0.8
 43
0.6
210
0.0
220
-1.0
230
0.0
  0
INSERT
  8
RAFTX
  2
CUBE
 10
0.0
 20
9.854816
 30
35.0
 41
50.0
 42
0.8
 43
0.6
210
0.0
220
-1.0
230
0.0
  0
ENDSEC
  0
EOF
